Editors - When Anger Shows Text Guitar Tab

Learn song with the online tabulature player
-------------------------------------------------------------------------------
                             When Anger Shows - Editors
-------------------------------------------------------------------------------

Tuning: Standard

(Chris' parts in the song) - For 'Editors-like' effect use gain and reverb.

Pre-Chorus

e|--12-12-12-12-12-12-12-12-12-12-12-12--------------------------------------|
B|---------------------------------------------------------------------------|
G|---------------------------------------------------------------------------|
D|---------------------------------------------------------------------------|
A|---------------------------------------------------------------------------|
E|---------------------------------------------------------------------------|

Chorus 

e|--0-5-3-2---3-2----0-5-3-2---3-2-------------------------------------------|
B|----------3-----3----------3-----3-----------------------------------------|
G|---------------------------------------------------------------------------|
D|---------------------------------------------------------------------------|
A|---------------------------------------------------------------------------|
E|---------------------------------------------------------------------------|
                                                    (End on)
e|--12-17-15-14----15-14----12-17-15-14----15-14-------12--------------------|
B|--------------15-------15-------------15-------15--------------------------|
G|---------------------------------------------------------------------------|
D|---------------------------------------------------------------------------|
A|---------------------------------------------------------------------------|
E|---------------------------------------------------------------------------|

Interlude - 'How can you know?'
(Not representative of real number of times each note is played
- easy to work out when listening to the music).

e|--7-7-7-7-10-10-10-10-2-2-2-2-10-10-10-10-7-7-7-7-10-10-10-10-2-2-2-2------|
B|---------------------------------------------------------------------------|
G|---------------------------------------------------------------------------|
D|---------------------------------------------------------------------------|
A|---------------------------------------------------------------------------|
E|---------------------------------------------------------------------------|