Ednas Goldfish - A Perfect Day Text Guitar Tab

Learn the song with the online tablature player
G:--5h7----------------------------------------------------------
D:-----5h7-------------------------------------------------------
A:---------------------------------------------------------------
E:---------------------------------------------------------------

G:-----------------------------------------------------------------
D:-----------------------------------------------------------------
A:---------7-7-7-7---------7-7-7-7---------7-7-7-7---------0h7-7-7-7
E:-7-7-7-7---------7-7-7-7---------7-7-7-7---------7-7-7-7---------

X8
G:---------------------------------------------------------------
D:---------------------------------------------------------------
A:---------7-7-7-7-----------------------------------------------
E:-7-7-7-7-------------------------------------------------------

X4
G:---------------------------------------------------------------
D:---------------------------------------------------------------
A:------------0h77777777-----------------------------------------
E:-0h77777777----------------------------------------------------

X10
G:---------------------------------------------------------------
D:---------------------------------------------------------------
A:---------7-7-7-7-----------------------------------------------
E:-7-7-7-7-------------------------------------------------------

X4
G:---------------------------------------------------------------
D:---------------------------------------------------------------
A:------------0h77777777-----------------------------------------
E:-0h77777777----------------------------------------------------

G:---------------------------------------------------------------
D:---------------------------------------------------------------
A:-9999999999999999----------------------------------------------
E:---------------------------------------------------------------

X8
G:---------------l------------------------------------------------
D:---------------l------------------------------------------------
A:----6-77777777-l-6----------------------------------------------
E:-77------------l------------------------------------------------