Ednas Goldfish - Eventually Anyways Text Guitar Tab

Learn the song with the online tablature player
GREAT SONG FROM A GREAT BAND

G:---------------------------------------------------------------
D:---------------------------------------------------------------
A:-1>9 slide-----------------------------------------------------
E:---------------------------------------------------------------

X8
G:---------------------------------------------------------------
D:---------------------------------------------------------------
A:-55555555------------------------------------------------------
E:---------3333-5555---------------------------------------------

G:---------------------------------------------------------------
D:---------------------------------------------------------------
A:-5--5----------------------------------------------------------
E:-----3333-5555-------------------------------------------------

X4
G:---------------------------------------------------------------
D:---------------------------------------------------------------
A:-55555555------------------------------------------------------
E:---------3333-5555---------------------------------------------

G:---------------------------------------------------------------
D:---------------------------------------------------------------
A:---------------------------------------------------------------
E:00000000-3333-5555---------------------------------------------

X2
G:---------------------------------------------------------------
D:---------------------------------------------------------------
A:-55555555------------------------------------------------------
E:---------3333-5555---------------------------------------------

G:---------------------------------------------------------------
D:---------------------------------------------------------------
A:-3-3-3----------3-------------3-----------3--------------------
E:------3333-5555--3333-5-5-5-5---3333-5555---3-5----------------

X4
G:---------------------------------------------------------------
D:---------------------------------------------------------------
A:-55555555------------------------------------------------------
E:---------3333-5555---------------------------------------------

G:---------------------------------------------------------------
D:---------------------------------------------------------------
A:-5-5-----------------------------------------------------------
E:----3333-5555--------------------------------------------------

X3
G:---------------------------------------------------------------
D:---------------------------------------------------------------
A:-55555555------------------------------------------------------
E:---------3333-5555---------------------------------------------

G:---------------------------------------------------------------
D:---------------------------------------------------------------
A:---------------------------------------------------------------
E:0-0-3333-5555---------------------------------------------

X3
G:---------------------------------------------------------------
D:---------------------------------------------------------------
A:---------------------------------------------------------------
E:00000000-3333-5555---------------------------------------------

G:---------------------------------------------------------------
D:---------------------------------------------------------------
A:-3-3-----------3--------------3-----------3--------------------
E:-----3333-5555---3333-5-5-5-5---3333-5555---3-5----------------

Horn Solo

G:---------------------------------------------------------------
D:---------------------------------------------------------------
A:-1>9 slide-----------------------------------------------------
E:---------------------------------------------------------------

X4
G:---------------------------------------------------------------
D:---------------------------------------------------------------
A:-55555555------------------------------------------------------
E:---------3333-5555---------------------------------------------

X3
G:---------------------------------------------------------------
D:---------------------------------------------------------------
A:---------------------------------------------------------------
E:-00000000-3333-5555--------------------------------------------

G:---------------------------------------------------------------
D:---------------------------------------------------------------
A:---------------------------------------------------------------
E:-00000000-3-5--------------------------------------------