Edwin Starr - Stop Her On Sight Text Guitar Tab

Learn song with the online tabulature player
Stop Her On Sight (S.O.S.)
Original Artist: Edwin Starr
Released in 1966
Song Writers: C.Hatcher/A.Hamilton/R.Moore
Original Bassist: Bob Babbitt
Any comments email me at goldenoldie.benson@sky.com
Have fun - very easy

Intro:
G----------------------------------------------------|
D----------------------------------------------------|
A---4-4-4---------4-4-4---------4-4-4--------4-4-----|
E--------2-4-----------2-4-----------2-4-------------|

G-------------------------------------------------------|
D-------------------------------------------------------|
A---------------------------------4444444---------------|
E---0-22222222-2222222-2-44444444---------0-22222222----|

G----------------------------------|
D----------------------------------|
A----------------------4444444-4---|
E---2222222-2-44444444-------------|

Verse 1:
G--------------------------------------------------------------|
D---11111111-11111111------------------------------------------|
A-------------------------------22222222-----------------------|
E---------------------2-4444444----------22222222---33333333---|

G------------------------|
D------------------------|
A-------------44444444---|
E---44444444-------------|

Chorus:
G--------------------------------------------------------------------|
D--------------------------------------------------------------------|
A-----------------------------------4444444--------------------------|
E---22222222---22222222---44444444----------0-22222222---2222222-2---|

G-------------------------|
D-------------------------|
A-------------4444444-4---|
E---44444444--------------|

Verse 2:
G--------------------------------------------------------------|
D---11111111-11111111------------------------------------------|
A-------------------------------22222222-----------------------|
E---------------------2-4444444----------22222222---33333333---|

G---------------------------|
D---------------------------|
A-------------44444444------|
E---44444444------------2---|

Repeat Intro (Sax Solo):

Bridge:
G-------------------------------------------------|
D-------------------------------------------------|
A---4-66666666-6666666---4-66666666-6666666---4---|
E-------------------------------------------------|

Full Repeats including chorus repeats to fade

Repeat Chorus to Fade