Eels - Blinking Lights For Me Text Guitar Tab

Learn song with the online tabulature player
----------------------------------------------------------------------------
                             Theme from blinking lights - Eels
----------------------------------------------------------------------------


Tabbed by: Anton Petersson 16/9-05
Email: antonpetersson1@hotmail.com


Tuning:E-A-D-G-B-e

    G           D     C      D     G           D     C      D

e|-----------12-10---------------------------12-10-------------------------|
B|-----10-12-------10--13-12-10--------10-12-------10-13-12-10-------------|
G|--12------------------------------12-------------------------------------|
D|-------------------------------------------------------------------------|
A|-------------------------------------------------------------------------|
E|-------------------------------------------------------------------------|

         Bm      C    G     D          Bm      C           D    G

e|--------------------12-12-10---------------------------------------------|
B|-12-10---------12--------------12-10---------12--------------------------|
G|-------12--12------------------------12----------------------------------|
D|---------------------------------------------------12----14----12--------|
A|-------------------------------------------------------------------------|
E|-------------------------------------------------------------------------|


Mail commets, or other things to my E-mail
For Sushi