Efek Rumah Kaca - Desember Text Guitar Tab

Learn song with the online tabulature player
Tab written by vallav

Efek Rumah Kaca
Desember

Tuning Standard

This is another great song from ERK.. Enjoy!



Intro:

---0------|-------------|---0------|---------0---|
----------|---0-------3-|----------|---0-------3-|
-4---4--2-|-0---0-2-4---|-4---4--2-|-0---0-2-----|
----------|-------------|----------|-------------|
----------|-------------|----------|-------------|
----------|-------------|----------|-------------|




Verse:

Slalu ada, yang ...  ber-elegi      di balik ...
---0------|-------------|---0------|---------0---|
----------|---0-------3-|----------|---0-------3-|
-4---4--2-|-0---0-2-4---|-4---4--2-|-0---0-2-----|
----------|-------------|----------|-------------|
----------|-------------|----------|-------------|
----------|-------------|----------|-------------|

-tam
---0------|-------------|
----------|---0-------3-|
-4---4--2-|-0---0-2-4---|
----------|-------------|
----------|-------------|
----------|-------------|

Smoga ada, yang ...      gelap ...  menanti ...
---0------|-------------|---0------|---------------|
----------|---0-------3-|----------|---0-------3-1-|
-4---4--2-|-0---0-2-4---|-4---4--2-|-0---0---0-----|
----------|-------------|----------|-------4-------|
----------|-------------|----------|---------------|
----------|-------------|----------|---------------|

setia ...
---------------------------|
---------------------3-----|
-4---0----------4--------0-|
----------0-2-0------------|
---------------------------|
---------------------------|




Chorus:
Aku selalu suka sehabis hujan di bulan Desember, di bulan Desember

--0--3--0--3--|--3--3--3--3--|--0--0--0--0--|--2--2--2--2--|
--5--5--5--5--|--3--3--3--3--|--5--5--5--5--|--3--3--3--3--|
--4--4--4--4--|--0--0--0--0--|--4--4--4--4--|--2--2--2--2--|
--5--5--5--5--|--0--0--0--0--|--5--5--5--5--|--4--4--4--4--|
--3--3--3--3--|--2--2--2--2--|--3--3--3--3--|--2--2--2--2--|
--x--x--x--x--|--3--3--3--3--|--x--x--x--x--|--x--x--x--x--|




Verse:

Slalu ada, yang ...  ber-elegi      di balik ...
---0------|-------------|---0------|---------0---|
----------|---0-------3-|----------|---0-------3-|
-4---4--2-|-0---0-2-4---|-4---4--2-|-0---0-2-----|
----------|-------------|----------|-------------|
----------|-------------|----------|-------------|
----------|-------------|----------|-------------|

Smoga ada, yang ...      gelap ...  menanti ...
---0------|-------------|---0------|---------------|
----------|---0-------3-|----------|---0-------3-1-|
-4---4--2-|-0---0-2-4---|-4---4--2-|-0---0---0-----|
----------|-------------|----------|-------4-------|
----------|-------------|----------|---------------|
----------|-------------|----------|---------------|

setia ...
---------------------------|
---------------------3-----|
-4---0----------4--------0-|
----------0-2-0------------|
---------------------------|
---------------------------|




Chorus:

Aku selalu suka sehabis hujan di bulan Desember, di bulan Desember

--0--3--0--3--|--3--3--3--3--|--0--0--0--0--|--2--2--2--2--|
--5--5--5--5--|--3--3--3--3--|--5--5--5--5--|--3--3--3--3--|
--4--4--4--4--|--0--0--0--0--|--4--4--4--4--|--2--2--2--2--|
--5--5--5--5--|--0--0--0--0--|--5--5--5--5--|--4--4--4--4--|
--3--3--3--3--|--2--2--2--2--|--3--3--3--3--|--2--2--2--2--|
--x--x--x--x--|--3--3--3--3--|--x--x--x--x--|--x--x--x--x--|


Solo:

Guitar 1
-------------------5-----|-------------1------------|
-3----/1---------------3-|/5-----------------3------|
-------------------------|--------------------------|
-------------------------|--------------------------|
-------------------------|--------------------------|
-------------------------|--------------------------|

Guitar 2
-------------------------|-------------3-----5------|
-5---5-8-----5---5-8-----|-5-----5------------------|
---5-----5-7---5-----5-7-|---4-----4-----4-----4----|
-------------------------|-----5-----5-----5-----5--|
-------------------------|--------------------------|
-------------------------|--------------------------|


Guitar 1
-------------------5-----|-------0-----3-3---12--12-|
/1---------------------3-|/5------3-----5------15---|
-------------------------|--------------------------|
-------------------------|--------------------------|
-------------------------|--------------------------|
-------------------------|--------------------------|

Guitar 2
-5-----5-----5-----5-----|--------------------------|
-----0-----0-----0-----0-|-5-----5-----5-----5------|
---5-----5-----5-----5---|---4-----4-----4-----4----|
-------------------------|-----5-----5-----5-----5--|
-------------------------|--------------------------|
-------------------------|--------------------------|




Verse:

Sampai
nanti ...            mene-teskan ...             
-------------------------|-------------3-----5-----|
-5---5-8-----5---5-8-----|-5-----5-----------------|
---5-----5-7---5-----5-7-|---4-----4-----4-----4---|
-------------------------|-----5-----5-----5-----5-|
-------------------------|-------------------------|
-------------------------|-------------------------|

hujan memuli~hkan      lu-ka~
-5-----5-----5-----3-----|-------------------------|
-----0-----0-----0-----0-|-5-----5-----5-----5-----|
---5-----5-----5-----5---|---4-----4-----4-----4---|
-------------------------|-----5-----5-----5-----5-|
-------------------------|-------------------------|
-------------------------|-------------------------|

Chorus: (2x, fade out and slow down in the end of the 2nd)

Aku selalu suka sehabis hujan di bulan Desember, di bulan Desember
Karna aku selalu suka sehabis hujan di bulan Desember, di bulan Desember


--8---8---8---8--|--8---8---8---8--|--8---8---8---8--|--7---7---7---7--|
--10--10--10--10-|--8---8---8---8--|--10--10--10--10-|--8---8---8---8--|
--9---9---9---9--|--9---9---9---9--|--9---9---9---9--|--9---9---9---9--|
--10--10--10--10-|--10--10--10--10-|--10--10--10--10-|--9---9---9---9--|
--8---8---8---8--|--10--10--10--10-|--8---8---8---8--|--7---7---7---7--|
--x---x---x---x--|--8---8---8---8--|--x---x---x---x--|--x---x---x---x--|



Seperti pelangi      setia menunggu hujan  reda
-------------8------|----------------------------|
-------------10-----|----------------------8-----|
-------------9------|-9--5-----------9--------5--|
-------------10-----|----------5-7-5-------------|
-------------8------|----------------------------|
-------------x------|----------------------------|