Elbow - The Loneliness Of A Tower Crane Driver Text Guitar Tab

Learn song with the online tabulature player
-----------------------------------------------------------------------------
                  Loneliness of a Tower Crane Driver - Elbow
-----------------------------------------------------------------------------

Tabbed By : Kondeeka

Tuning: standard EADG

Really easy to play, I think letting all notes ring sounds better.

Riff A
G|--------------------------------------------------------------------------|
D|--------------------------------------------------------------------------|
A|-----5---7~---------------------------------------------------------------|
E|-8~----8------5~----------------------------------------------------------|

    1:43      1:57
G|--------------------------------------------------------------------------|
D|--------------------------------------------------------------------------|
A|--------------------------------------------------------------------------|
E|---3~~~~~~---8~~~~~~~~----------------------------------------------------|

Riff B
G|--------------------------------------------------------------------------|
D|--------------------------------------------------------------------------|
A|-----5---7~-----------------7~----------------7~--------------------------|
E|-8~----8------9~--8~--4~~~------9~--5~-8~-4~------5~----------------------|

    4:38       4:55
G|--------------------------------------------------------------------------|
D|--------------------------------------------------------------------------|
A|--------------------------------------------------------------------------|
E|--3~~~~~~~~~~8~~~~~~------------------------------------------------------|

Variation of riff A
G|--------------------------------------------------------------------------|
D|--------------------------------------------------------------------------|
A|--------------------------------------------------------------------------|
E|-8~--10-8-12~~\5~~--------------------------------------------------------|

| /  slide up
| \  slide down
| h  hammer-on
| p  pull-off
| ~  vibrato
| +  harmonic
| x  Mute note
===============================================================================

Order of playing:
0:05 Riff A   x8
2:09 Riff A   x8
3:40 Riff B   x1
4:15 Riff A   x1

Enjoy! ;D