Electric Guest - This Head I Hold Text Guitar Tab

Learn song with the online tabulature player
This song is basically two parts.  Listen to the song for the rhythm and where each part 
is played.


Rest for a bit, enter with these three notes and then go into Part I
G|----------|
D|----------|
A|---0-3-4--|
E|----------|

Part I
G|----------------------|-----------|------------|
D|------3-5-----------2-|3---3-5-3--|2--2-2------|
A|-5--5----3---33-3-5---|-----------|------0-3-4-|
E|----------------------|-----------|------------|

Part II
      (x5)
G------5-7|-----5-7-|-----5-7-|-------|
D-0-7-----|---7-----|---7-----|--5----|
A---------|-7-------|-8-------|-------|
E---------|---------|---------|-------|

And that's it!