Electric Light Orchestra - Moment In Paradise Text Guitar Tab

Learn the song with the online tablature player
        Moment in Paradise (Slide Solo) - Electric Light Orchestra

Note:  This is one of Jeff Lynne's best songs.  The chords from the guitar and piano
fit beutifully.  The chords are already up on this site but it didn't have the slide solo
that brings out the song.  Plus, Ringo Starr filled in for the drums. You can find this
song on the album "zoom" that came out in 2001 under ELO.  It's really a Jeff Lynne solo
Album but, hey its good.

e|---------------------------------------------------------------------------|
B|--/10----\7-5-3--/12----\7-5-3--/14----\10 /14 \10-\8--\2--/3--/5----------|
G|---------------------------------------------------------------------------|
D|---------------------------------------------------------------------7--\4-|
A|---------------------------------------------------------------------------|
E|---------------------------------------------------------------------------|

e|---------------------------------------------------------------------------|
B|---------------------------------------------------------------------------|
G|---------------------------------------------------------------------------|
D|-\2-0--/9----\4-\2-0--/11----\7-/11--\7--\5--------------------------------|
A|---------------------------------------------4--/5--/7---------------------|
E|---------------------------------------------------------------------------|

| /  slide up
| \  slide down
| h  hammer-on
| p  pull-off
| ~  vibrato
| +  harmonic
| x  Mute note