Electric Soft Parade - Empty At The End Text Guitar Tab

Learn the song with the online tablature player
Empty At The End Solo
Electric Soft Parade

E-----------9-9-7----------------9-9-7--------------------------7---------------------------|
B------------------7-9------------------10-8------------8-8---8-------8-10----8-------------|
G-9-9-9-9--------------7-9---9---------------9----7-9-------9-------9-------9-----7-9-------|
D-------------------------------------------------------------------------------------------|
A-------------------------------------------------------------------------------------------|
E-------------------------------------------------------------------------------------------|

                        (Yeah, Yeah)

E-----9-9-7----------------9-9-7----------------------------7--------------------------|
B------------7-9-------------------10-8------------8-8---8-------8-10----8-------------|
G-9----------------7-9---9---------------9----7-9------9-------9-------9-----7-9-------|
D--------------------------------------------------------------------------------------|
A--------------------------------------------------------------------------------------|
E--------------------------------------------------------------------------------------|

I hope you enjoy playing it!! I'm sorry I didn't put in bends e.t.c but you can improvise.

Chris