Eli Young Band - So Close Now Text Guitar Tab

Learn song with the online tabulature player
okay guys i finally put this up here...i did it real fast so im sure it has many 
i also tabbed it left-handed for all the lefties like me! enjoy, Seth

Left-Handed Tab

e|-7----------5-------------|  |--------------------------------------------|
b|----4--4h5--5---5p4-------|  |--------------------------------------------|
g|---------------------h6p4-|  |---4/6--6-6--6/8--8-8--8/9--9-9--9/11--11-11|
d|--------------------------|3X|--------------------------------------------|
a|--------------------------|  |--------------------------------------------|
E|--------------------------|  |--------------------------------------------|


e|---12----------12----------------|      |---12--11--9--7/9----------|
b|------9--9h12--12---12p9---------|      |---------------------------|
g|-------------------------h11p9-  |  3X  |---------------------------|
d|---------------------------------|      |---------------------------|
a|---------------------------------|      |---------------------------|
E|---------------------------------|      |---------------------------|


Right-Handed Tab

E|---------------------------|  |-------------------------------------------|
a|---------------------------|  |-------------------------------------------|
d|---------------------------|3X|-------------------------------------------|
g|----------------------h6p4-|  |-4/6--6-6--6/8--8-8--8/9--9-9--9/11--11-11-|
b|------4--4h5-5---5p4-------|  |-------------------------------------------|
e|---7---------5-------------|  |-------------------------------------------|


E|---------------------------------|        |---------------------------|
a|---------------------------------|        |---------------------------|
d|---------------------------------|        |---------------------------|
g|-------------------------h11p9-  |    3X  |---------------------------|
b|------9--9h12--12---12p9---------|        |---------------------------|
e|---12----------12----------------|        |---12--11--9--7/9----------|

h=hammer on
p=pull off
/=slide up