Ellegarden - Make A Wish Text Guitar Tab

Learn song with the online tabulature player
verse x2
|-------------------------------------------------------|
|-------------------------------------------------------|
|-------------------6-6-6-6-6-6-6-6---2-2-2-2-2-2-2-2---|
|-2-2-2-2-2-2-2-2---6-6-6-6-6-6-6-6---2-2-2-2-2-2-2-2---|
|-2-2-2-2-2-2-2-2---4-4-4-4-4-4-4-4---0-0-0-0-0-0-0-0---|
|-0-0-0-0-0-0-0-0---------------------------------------|


|-------------------------------------------------------|
|-------------------------------------------------------|
|-4-4-4-4-4-4-2-2---------------------6-6-6-6-6-6-6-6---|
|-4-4-4-4-4-4-2-2---6-6-6-6-6-6-6-6---6-6-6-6-6-6-6-6---|
|-2-2-2-2-2-2-0-0---6-6-6-6-6-6-6-6---4-4-4-4-4-4-4-4---|
|-------------------4-4-4-4-4-4-4-4---------------------|


|-------------------------------------------------------|
|-------------------------------------------------------|
|-2-2-2-2-2-2-2-2---4-4-4-4-4-4-4-4---------------------|
|-2-2-2-2-2-2-2-2---4-4-4-4-4-4-4-4---------------------|
|-0-0-0-0-0-0-0-0---2-2-2-2-2-2-2-2---------------------|
|-------------------------------------------------------|


chorus x2
|-------------------------------------------------------|
|-------------------------------------------------------|
|-------------------4-4-4-4-4-4-4-4---6-6-6-6-6-6-6-6---|
|-2-2-2-2-2-2-2-2---4-4-4-4-4-4-4-4---6-6-6-6-6-6-6-6---|
|-2-2-2-2-2-2-2-2---2-2-2-2-2-2-2-2---4-4-4-4-4-4-4-4---|
|-0-0-0-0-0-0-0-0---------------------------------------|


|-------------------------------------------------------|
|-------------------------------------------------------|
|-------------------2-2-2-2-2-2-2-2---4-4-4-4-4-4-4-4---|
|-6-6-6-6-6-6-6-6---2-2-2-2-2-2-2-2---4-4-4-4-4-4-4-4---|
|-6-6-6-6-6-6-6-6---0-0-0-0-0-0-0-0---2-2-2-2-2-2-2-2---|
|-4-4-4-4-4-4-4-4---------------------------------------|


|-------------------------------------------------------|
|-------------------------------------------------------|
|-------------------4-4-4-4-4-4-4-4---------------------|
|-2-2-2-2-2-2-2-2---4-4-4-4-4-4-4-4---------------------|
|-2-2-2-2-2-2-2-2---2-2-2-2-2-2-2-2---------------------|
|-0-0-0-0-0-0-0-0---------------------------------------|

the second time you plai the chorus instead of playing 
this at the end ↓   play an e chord and let it ring
|-----------------|  
|-----------------|
|-4-4-4-4-4-4-4-4-|
|-4-4-4-4-4-4-4-4-|
|-2-2-2-2-2-2-2-2-|
|-----------------|     

|-0~-|
|-0~-|
|-1~-|
|-2~-|
|-2~-|
|-0~-|  (e chord)
 

the fast bit after the chorus is the basically the smae as chorus just the strumming is faster.