Ellie Goulding - Wish I Stayed Text Guitar Tab

Learn song with the online tabulature player
e------4-----4-----4-----4-----4-----4-----4--4--0-------------------|
B------2-----2-----2-----2-----2-----2-----2--2--2-------------------|
G--------------------------------------------------------------------|
D--------------------------------------------------------------------|
A---0-----0-----0-----0-----0-----0-----0----------------------------|
E--------------------------------------------------------------------|


e------0-----0-----0-----0-----0-----0------0--0--0------------------|
B------2-----2-----2-----2-----2-----2------2--2--2------------------|
G--------------------------------------------------------------------|
D--------------------------------------------------------------------|
A---4-----4-----4-----4-----4-----4-----4----------------------------|
E--------------------------------------------------------------------|

and repeat,


ENJOY:]