Elliott Smith - No Name 3 Text Guitar Tab

Learn song with the online tabulature player
-------------------------------------------------------------------------------
                             No Name #3 - Elliott Smith
-------------------------------------------------------------------------------
Tabbed by: Tommy CUtter
Email: iamtommy@gmail.com
Website: http://www.tommycutter.com

Tuning: Drop D

  Intro: x2

e|-7---10--------------------------------------------------------------------|
B|-0---0---------------------------------------------------------------------|
G|-0---0---------------------------------------------------------------------|
D|-0---0---------------------------------------------------------------------|
A|-x---x---------------------------------------------------------------------|
D|-5---9---------------------------------------------------------------------|

  Verse First Part: x1

e|-7---10--7----10--8--------------------------------------------------------|
B|-0---0---0----0---0--------------------------------------------------------|
G|-0---0---0----0---0--------------------------------------------------------|
D|-0---0---0----0---0--------------------------------------------------------|
A|-x---x---x----x---x--------------------------------------------------------|
D|-5---9---5----9---7--------------------------------------------------------|

  Verse Second Part: x1

e|-7-----5--7--7-------------------------------------------------------------|
B|-0-----0--0--0-------------------------------------------------------------|
G|-0-----0--0--0-------------------------------------------------------------|
D|-0-----x--x--0-------------------------------------------------------------|
A|-x--0--3--5--x-------------------------------------------------------------|
D|-5-----------5-------------------------------------------------------------|

  Play Verse First Part, Verse Second Part, and then:

  Chorus: x1

e|-7-----1-----3-----1-----3-----1-------------------------------------------|
B|-0-----1-----0-----1-----0-----1-------------------------------------------|
G|-0-----0-----0-----0-----0-----0-------------------------------------------|
D|-0-----x--0--0-----x--0--0-----x-------------------------------------------|
A|-x--0--1--x--5--0--1--x--5--0--1-------------------------------------------|
D|-5--------3--5--------3--5-------------------------------------------------|

  Play Verse First Part and Verse Second Part w/this solo

e|-------------------------------------------------------------------------------|
B|-8--7-----------------8--7-----------------8--7--------------------------------|
G|-------9--7-----------------9--7-----------------9--7--------------------------|
D|-------------9--7--9--------------9--7--9--------------9--7--9-----7--7h9p7--9-|
A|-------------------------------------------------------------------------------|
D|-------------------------------------------------------------------------------|

  Play Verse First Part, 
  Verse Second Part, 
  Chorus, 
  Verse First Part, 
  Verse Second Part (x2, low d note and first chord of first verse in between)



| /  slide up
| \  slide down
| h  hammer-on
| p  pull-off
| ~  vibrato
| +  harmonic
| x  Mute note
===============================================================================