Elton John - Gotta Get A Meal Ticket Text Guitar Tab

Learn song with the online tabulature player
Song taken from the 1975 Captain Fantastic and the Brown Dirt Cowboy album. Good 
track and a nice solo from Davey Johnstone.

As always any comments, good or bad, are welcome.

TAB Legend:

p       - Pull-off
b       - Bend note 
r       - Return from bend

Intro

e|----------------------------------------|----------------------------------------|
B|---------------6--5---------------6---5-|---------------6--5---------------6---5-|
G|-7---------5-7------7---------5-7-------|-7---------5-7------7---------5-7-------|
D|-----5-6-7--------------5-6-7-----------|-----5-6-7--------------5-6-7-----------|
A|---8------------------8-----------------|---8------------------8-----------------|
E|----------------------------------------|----------------------------------------|

Solo

e|---------------------------------------|
B|---------------------------------------|
G|-7-7---7-7-7-7-7-7--7-7-7-7-7-9b11r9-7-|
D|---------------------------------------|
A|---------------------------------------|
E|---------------------------------------|


e|--------------------------------------------------|
B|--------------------------------------------------|
G|-7-7-9b11r9-7-9b11r9p7-9b11r9p7-9b11r9p7-9b11r9p7-|
D|--------------------------------------------------|
A|--------------------------------------------------|
E|--------------------------------------------------|


e|------------------------------|----------------------------------|
B|------------------------------|----------------------------------|
G|-10b12-10b12---10b12-10b12-10-|-10b12-12-12b14r12p10-12b14r12p10-|
D|------------------------------|----------------------------------|
A|------------------------------|----------------------------------|
E|------------------------------|----------------------------------|


e|---------------------------------------|
B|-13b15-13b15---13b15-13b15-13b15-13b15-|
G|---------------------------------------|
D|---------------------------------------|
A|---------------------------------------|
E|---------------------------------------|


e|----------------------------------------|
B|-15b17-15b17-15b17-15b17-15b17r15-12-12-|
G|----------------------------------------|
D|----------------------------------------|
A|----------------------------------------|
E|----------------------------------------|


e|-------------------------------------------------|
B|-------------------------------------------------|
G|-14b16-14b16-14b16r14-12-12-10-12-10-12b14-12b14-|
D|-------------------------------------------------|
A|-------------------------------------------------|
E|-------------------------------------------------|


e|----------------------------------------------------------|
B|----------------------------------------------------------|
G|-12b14-12b14r12-12-10-12p10----10-10----10-12b14r12-12-10-|
D|----------------------------12-------12-------------------|
A|----------------------------------------------------------|
E|----------------------------------------------------------|


e|-----------------------------------------|---------------------|
B|-13b15(15)-13b15(15)-13b15(15)-13b15(15)-|---------------------|
G|-----------------------------------------|-------0-2-3-2-------|
D|-----------------------------------------|-0-2-3---------3-3s5-|
A|-----------------------------------------|---------------------|
E|-----------------------------------------|---------------------|