Elton John - Step Into Christmas Text Guitar Tab

Learn song with the online tabulature player
e|------------------------2---2-------------------------|
B|------------------------3---3-------------------------|
G|------------------------2---2-------------------------|
D|--3---2---0---------0---0---0-------------------------|
A|--------------0h2------------------------------0---0--|
E|----------------------------------2---3---4-----------|

e|------------------------2---2-------------------------|
B|------------------------3---3-------------------------|
G|------------------------2---2-------------------------|
D|--3---2---0---------0---0---0-------------------------|
A|--------------0--2----------------------------0---0---|
E|----------------------------------2---3---4-----------|


Chorus Chords: Strum each a couple of times

D              G                 A               D

D              G                 E                A