Elvis Presley - Silent Night Text Guitar Tab

Learn song with the online tabulature player
-------------------------------------------------------------------------------
                             Silent Night
-------------------------------------------------------------------------------
Tabbed by:Josh Hall
Email: gandalf@merpg.com

Tuning: Regular

Key: 
\  slide down

Please email me if you think this isn't good. To me it sounds pretty accurate.

e|--------------------------7-7-4----5-5------------------------------------
B|----5-7-5------5-7-5-------------------5----------------------------------
G|----------6----------6----------------------------------------------------
D|--------------------------------------------------------------------------
A|--------------------------------------------------------------------------
E|--------------------------------------------------------------------------

e|--------------------------7-7-10-9-7-5-5-5-7\9----------------------------
B|----7-7-10-9-7-5-7-5------------------------------------------------------
G|---------------------6----------------------------------------------------
D|--------------------------------------------------------------------------
A|--------------------------------------------------------------------------
E|--------------------------------------------------------------------------

e|----5---------------------------------------------------------------------
B|------7-5-5---------------------------------------------------------------
G|------------6-4-2---------------------------------------------------------
D|--------------------------------------------------------------------------
A|--------------------------------------------------------------------------
E|--------------------------------------------------------------------------

That's it! Merry Christmas to all.
===============================================================================