Elvis Presley - Too Much Text Guitar Tab

Learn song with the online tabulature player
Too Much by Elvis Presley
tabbed by Ulises Zalapa, ulises_zalapa@worldnet.att.et  

e----------------|-------------------------------------|
B-1-2-3-4-3-2-1x2|1-2-3-4-3-2-1-2-3-4-3-2-1-2-3-4-3-2-1|
G-1-2-3-4-3-2-1x2|1-2-3-4-3-2-1-2-3-4-3-2-1-2-3-4-3-2-1|
D-1-2-3-4-3-2-1x2|1-2-3-4-3-2-1-2-3-4-3-2-1-2-3-4-3-2-1|
A----------------|-------------------------------------|
E----------------|-------------------------------------|

e-----------------------------|-------|3-4-5x1|
B-------------0---------------|3-4-5x4|-------|
G---------1-3-----------1-3-4-|-------|-------|
D---1-2-3---------1-2-3-------|-------|-------|
A-4-------------4-------------|-------|-------|
E-----------------------------|-------|-------|

e-3-4-6-5-4-3-1-0--------------------------------------------|
B-----------------4-3-2-1-0-1-2-4-6-4-2-1-0-1-2-4-6-4-2-1-0-1|
G------------------------------------------------------------|
D------------------------------------------------------------|
A------------------------------------------------------------|
E------------------------------------------------------------|

e---1----------------------------|
B-4---4-2-1-0----0-4-2-4-0----0--|
G-------------v1-----------v1---1|
D--------------------------------|
A--------------------------------|
E--------------------------------|