Embrace - Drawn From Memory Text Guitar Tab

Learn song with the online tabulature player
This is My First Tab so thanks for looking and ill try to comlete the entire song soon,

(Ive just input a guitar instead of piano, very begining dosent sound too good, ill fix asap)

\=Slide Down
b=Bend (Down in this case)

E|-----------------5--------------------------------5--------|
B|--------5--8--8-----5-----------------5--5--5--8-----5-----|
G|--5--7-----------------7--5-----5--7--------------------7--|
D|-----------------------------7-----------------------------|
A|-----------------------------------------------------------|
E|-----------------------------------------------------------|

E|--------------------------------------|
B|-----------5b5------------------------|
G|-----5--7-------7--5--5\2-------------|  (X2)
D|--7----------------------5--5\2--5----|
A|--------------------------------------|
E|--------------------------------------|

E|-----5-----------|
B|--8-----5--------|
G|-----------7-----|
D|-----------------|
A|-----------------|
E|-----------------|

Thank You For veiwing my tab, and Embrace for making such a great song.
>_> b