Embrace - Natures Law Text Guitar Tab

Learn song with the online tabulature player
This is the piano bit thats played through it

e|--------11--------9--8---------------------8---------------------------|
B|-8--9-------9------------9---11-----8--9---------11-----9----8---------|
G|-----------------------------------------------------------------------|X3
D|-----------------------------------------------------------------------|
A|-----------------------------------------------------------------------|
E|-----------------------------------------------------------------------|



e|--------11--------9--8-----------------------------8-------------------|
B|-8--9-------9------------9---11-----8--9----11----------9----11-----6--|
G|-----------------------------------------------------------------------|
D|-----------------------------------------------------------------------|
A|-----------------------------------------------------------------------|
E|-----------------------------------------------------------------------|