Emilie Simon - Flowers Text Guitar Tab

Learn song with the online tabulature player
-------------------------------------------------------------------------------
     Flowers - Emilie Simon
-------------------------------------------------------------------------------

Tabbed By : appcronos
e-mail: appcronos@yahoo.com

 nn = two notes played close not fret nn (ex 11 = fret 1) 
  > = pattern continues on the next line

G|------------------------------------------------------------------------|
D|------------------------------------------------------------------------|
A|-00-0--0-3-0-----------------------------------2-0-------2--00-0--0-3-0-|x2
E|-------------11-1--1-3-1--00-00--00-00--00-00------00-00----------------|

G|----------------------------------------------------------------------->
D|-00-55-0-3-00-55-2-0-00-55-7-5-3-2-0---00-2-3-0-00-3-2-3-00-22-33-55-7->
A|-------------------------------------3--------------------------------->
E|----------------------------------------------------------------------->

G>------------------------------------------------------------------------|
D>-00-7-3-0-7-9-5-7-77-3-0-2-55-3-0-3--33-2-0-2-33-2-0-2------------------|
A>-------------------------------------------------------00-00-33-33------|
E>------------------------------------------------------------------------|

G|------------------------------------------------------------------------|
D|------------------------------------------------------------------------|
A|-00-0--0-3-0-----------------------------------2-0-------2--00-0--0-3-0-|
E|-------------11-1--1-3-1--00-00--00-00--00-00------00-00----------------|

G|----------------------------------------------------------------------->
D|-00-55-0-3-00-55-2-0-00-55-7-5-3-2-0---00-2-3-0-00-3-2-3-00-22-33-55-7->
A|-------------------------------------3--------------------------------->
E|----------------------------------------------------------------------->

G>----------------------------------------------------------------------->
D>-00-7-3-0-7-9-5-7-77-3-0-2-55-3-0-3-33-33-22-22-33-33-22-22-33-33-22-22>
A>----------------------------------------------------------------------->
E>----------------------------------------------------------------------->

G>-2222------2222------2-|
D>------2222------2222---|
A>---------------------0-|
E>-----------------------|

| /  slide up
| \  slide down
| h  hammer-on
| p  pull-off
| ~  vibrato
| +  harmonic
| x  Mute note
===============================================================================