Eminem - Lighters Text Guitar Tab

Learn the song with the online tablature player
Chords

C Em Am F

Chorus

E|----------0--3-----------0--3h5p3-----3--7--8--------5--1--1--1--1--0-----1--1--1--1--0--------|
B|-1--1--3--------1--1--3------------1-----------8-----------------------3-----------------3--1--|
G|--------------------------------------------------9--------------------------------------------|
D|-----------------------------------------------------3--------------------------------------3--|
A|-------------3---------------------------0-----------------------3-----------------0-----------|
E|----------------------------0------------------------------------------0-----------------------|

Short Riff in verse

E|-----------3-----------3-----------0-----------------|
B|-----1-----------0-----------------------------1-----|
G|-----------------------------2-----------------------|
D|-----------------------------------------3-----------|
A|-----3-----------------------0-----------------------|
E|-----------------0-----------------------------------|