En Espiritu Y En Verdad - Generacion Que Danza Text Guitar Tab

Learn song with the online tabulature player
Intro

G|---------------------------------------------------------------------------|
D|---------------------------------------------------------------------------|
A|-5--3--5--5--3--5--/8---2--0--2--2--0--2--/8-------------------------------|
E|--------------------------------------------------3--/15--\10--------------|

Es El Desbordar......
G|---------------------------------------------------------------------------|
D|---------------------------------------------------------------------------|
A|---7--7--7--9--9--9--9--10--10--10--12--12--12-----------------------------|
E|---------------------------------------------------------------------------|

Coro

Seremos La generacion......
G|---------------------------------------------------------------------------|
D|---------------------------------------------------------------------------|
A|---5--5--5--5--5--7--7--7--7--10--10--10--10--10---------------------------|
E|---------------------------------------------------------------------------|




| /  slide up
| \  slide down
| h  hammer-on
| p  pull-off
| ~  vibrato
| +  harmonic
| x  Mute note


Saludos Leo!! xD