Endeverafter - Long Way Home Text Guitar Tab

Learn song with the online tabulature player
#----------------------------------PLEASE NOTE---------------------------------#
#This file is the author's own work and represents their interpretation of the #
#song. You may only use this file for private study, scholarship, or research. #
#------------------------------------------------------------------------------#


Long Way Home by EndeverafteR --- Tabbed by Bob M.

Great song, beautiful acoustic line and harmonies between the singing. 
I tabbed it all by ear so if it's not 100% that's the reason why but 
I think it sounds pretty close. 


intro guitar 00:01
   
   * 
e--0h2p0---0-----5-----5-----5-----5-----5-----5-------|
b--------3---3------3-----3-----3-----3-----3-----3----|
g------------------------------------------------------|
d------------------------------------------------------|
a------------------------------------------------------|
e------------------------------------------------------|


e--0h2p0---0-------------------------------------------|
b--------3---3------3-----3-----3-----3-----3-----3----|
g----------------2-----2-----2-----2-----2-----2-------|
d------------------------------------------------------|
a------------------------------------------------------|
e------------------------------------------------------|

e--0h2p0---0-------------------------------------------|
b--------3---3------3--2------0------------------------|
g----------------2--------2-----2----2---2---2----2----|
d----------------------------------0---0---0----0------|
a------------------------------------------------------|
e------------------------------------------------------|

e--0h2p0---0------5--5/7--5------5-----5-----5-----5---|
b--------3---3----3--3/5--3---3-----3-----3-----3------|
g------------------------------------------------------|
d------------------------------------------------------|
a------------------------------------------------------|
e------------------------------------------------------|


Verse 1 00:24

e--0h2p0---0-----5-----5-----5-----5-----5-----5-------|
b--------3---3------3-----3-----3-----3-----3-----3----|
g------------------------------------------------------|
d------------------------------------------------------|
a------------------------------------------------------|
e------------------------------------------------------|


e--0h2p0---0-------------------------------------------|
b--------3---3------3-----3-----3-----3-----3-----3----|
g----------------2-----2-----2-----2-----2-----2-------|
d------------------------------------------------------|
a------------------------------------------------------|
e------------------------------------------------------|

e--0h2p0---0-------------------------------------------|
b--------3---3------3--2------0------------------------|
g----------------2--------2-----2----2---2---2----2----|
d----------------------------------0---0---0----0------|
a------------------------------------------------------|
e------------------------------------------------------|


e--0h2p0---0-----5-----5-----5-----5-----5-----5-------||
b--------3---3------3-----3-----3-----3-----3-----3----||
g------------------------------------------------------||
d------------------------------------------------------||
a------------------------------------------------------||
e------------------------------------------------------||

e--0h2p0---0-------------------------------------------|
b--------3---3------3-----3-----3-----3-----3-----3----|
g----------------6-----4-----2-----6-----4-----2-------|
d------------------------------------------------------|
a------------------------------------------------------|
e------------------------------------------------------|

e--0h2p0---0-------------------------------------------|
b--------3---3------3--2------0------------------------|
g----------------2--------2-----2----2---2---2----2----|
d----------------------------------0---0---0----0------|
a------------------------------------------------------|
e------------------------------------------------------|

e--0h2p0---0-----5-----5-----5-----5-----5-----5-------|
b--------3---3------3-----3-----3-----3-----3-----3----|
g------------------------------------------------------|
d------------------------------------------------------|
a------------------------------------------------------|
e------------------------------------------------------|


Chorus 01:11
acoustic guitar 1

e--------5---------|-------5---------|-------5-------|-------5--------||
b----3-------3---3-|---3-------3---3-|---3------3--3-|---3-------3--3-||
g------------------|-----------------|---------------|----------------||
d--2---2---2---2---|-4---4---4---4---|-0---0---0--0--|-0---0---0---0--||
a------------------|-----------------|---------------|----------------||
e------------------|-----------------|---------------|----------------||

guitar 2 - 01:11

e-------12---------|--------12--------|-------12--------|-------12--------||
b---10------10--10-|---10--------10---|---10-------10---|---10-------10---||
g-9----9---9---9---|-11--11----11--11-|-----------------|-----------------||
d------------------|------------------|-12--12---12--12-|-12--12---12--12-||
a------------------|------------------|-----------------|-----------------||
e------------------|------------------|-----------------|-----------------||


guitar 2 - 01:23

e--------5---------|-------5---------|
b----3-------3---3-|---3-------3---3-|
g--4---4---4---4---|-4---4---4---4---|
d------------------|-----------------|
a------------------|-----------------|
e------------------|-----------------|


e--------5---------|-------5---------|
b----3-------3---3-|---3-------3---3-|
g--2---2---2---2---|-2---2---2---2---|
d------------------|-----------------|
a------------------|-----------------|
e------------------|-----------------|

e--------5---------|-------5---------||
b----3-------3---3-|---3-------3---3-|| PLAY THIS RIFF 
g--0---0---0---0---|-0---0---0---0---||  TWICE ONLY
d------------------|-----------------||
a------------------|-----------------||
e------------------|-----------------||


interlude - 01:34


e--0h2p0---0------5--5/7--5------5-----5-----5-----5---|
b--------3---3----3--3/5--3---3-----3-----3-----3------|
g------------------------------------------------------|
d------------------------------------------------------|
a------------------------------------------------------|
e------------------------------------------------------|


e--0h2p0---0-------------------------------------------|
b--------3---3------3-----3-----3-----3-----3-----3----|
g----------------2-----2-----2-----2-----2-----2-------|
d------------------------------------------------------|
a------------------------------------------------------|
e------------------------------------------------------|

e--0h2p0---0-------------------------------------------|
b--------3---3------3--2------0------------------------|
g----------------2--------2-----2----2---2---2----2----|
d----------------------------------0---0---0----0------|
a------------------------------------------------------|
e------------------------------------------------------|


e--0h2p0---0-----5-----5-----5-----5-----5-----5-------||
b--------3---3------3-----3-----3-----3-----3-----3----||
g------------------------------------------------------||
d------------------------------------------------------||
a------------------------------------------------------||
e------------------------------------------------------||

02:03

e--0h2p0---0-------------------------------------------|
b--------3---3------3-----3-----3-----3-----3-----3----|
g----------------6-----4-----2-----6-----4-----2-------|
d------------------------------------------------------|
a------------------------------------------------------|
e------------------------------------------------------|

e--0h2p0---0-------------------------------------------|
b--------3---3------3--2------0------------------------|
g----------------2--------2-----2----2---2---2----2----|
d----------------------------------0---0---0----0------|
a------------------------------------------------------|
e------------------------------------------------------|

e--0h2p0---0-----5-----5-----5-----5-----5-----5-------||
b--------3---3------3-----3-----3-----3-----3-----3----||
g------------------------------------------------------||
d------------------------------------------------------||
a------------------------------------------------------||
e------------------------------------------------------||

e--0h2p0---0-------------------------------------------|
b--------3---3------3-----3-----3-----3-----3-----3----|
g----------------6-----4-----2-----6-----4-----2-------|
d------------------------------------------------------|
a------------------------------------------------------|
e------------------------------------------------------|

e--0h2p0---0-------------------------------------------|
b--------3---3------3--2------0------------------------|
g----------------2--------2-----2----2---2---2----2----|
d----------------------------------0---0---0----0------|
a------------------------------------------------------|
e------------------------------------------------------|

e--0h2p0---0-----5-----5-----5-----5-----5-----5-------|
b--------3---3------3-----3-----3-----3-----3-----3----|
g------------------------------------------------------|
d------------------------------------------------------|
a------------------------------------------------------|
e------------------------------------------------------|


Chorus 2 - 02:44
acoustic guitar 1

e--------5---------|-------5---------|-------5-------|-------5--------||
b----3-------3---3-|---3-------3---3-|---3------3--3-|---3-------3--3-||
g------------------|-----------------|---------------|----------------||
d--2---2---2---2---|-4---4---4---4---|-0---0---0--0--|-0---0---0---0--||
a------------------|-----------------|---------------|----------------||
e------------------|-----------------|---------------|----------------||

guitar 2 - 02:44

e-------12---------|--------12--------|-------12--------|-------12--------||
b---10------10--10-|---10--------10---|---10-------10---|---10-------10---||
g-9----9---9---9---|-11--11----11--11-|-----------------|-----------------||
d------------------|------------------|-12--12---12--12-|-12--12---12--12-||
a------------------|------------------|-----------------|-----------------||
e------------------|------------------|-----------------|-----------------||


guitar 2 - 02:56

e--------5---------|-------5---------|
b----3-------3---3-|---3-------3---3-|
g--4---4---4---4---|-4---4---4---4---|
d------------------|-----------------|
a------------------|-----------------|
e------------------|-----------------|


e--------5---------|-------5---------|
b----3-------3---3-|---3-------3---3-|
g--2---2---2---2---|-2---2---2---2---|
d------------------|-----------------|
a------------------|-----------------|
e------------------|-----------------|

e--------5---------|-------5---------||
b----3-------3---3-|---3-------3---3-|| PLAY THIS RIFF 
g--0---0---0---0---|-0---0---0---0---||  TWICE ONLY
d------------------|-----------------||
a------------------|-----------------||
e------------------|-----------------||


e--0h2p0---0------5--5/7--5------5-----5-----5-----5---|
b--------3---3----3--3/5--3---3-----3-----3-----3------|
g------------------------------------------------------|
d------------------------------------------------------|
a------------------------------------------------------|
e------------------------------------------------------|

e--0h2p0---0-------------------------------------------|
b--------3---3------3-----3-----3-----3-----3-----3----|
g----------------2-----2-----2-----2-----2-----2-------|
d------------------------------------------------------|
a------------------------------------------------------|
e------------------------------------------------------|

e--0h2p0---0-------------------------------------------|
b--------3---3------3--2------0------------------------|
g----------------2--------2-----2----2---2---2----2----|
d----------------------------------0---0---0----0------|
a------------------------------------------------------|
e------------------------------------------------------|

e--0h2p0---0-----5-----5-----5-----5-----5-----5-------||
b--------3---3------3-----3-----3-----3-----3-----3----||
g------------------------------------------------------||
d------------------------------------------------------||
a------------------------------------------------------||
e------------------------------------------------------||

e--0h2p0---0-------------------------------------------|
b--------3---3------3-----3-----3-----3-----3-----3----|
g----------------2-----2-----2-----2-----2-----2-------|
d------------------------------------------------------|
a------------------------------------------------------|
e------------------------------------------------------|

e--0h2p0---0-------------------------------------------|
b--------3---3------3--2------0------------------------|
g----------------2--------2-----2----2---2---2----2----|
d----------------------------------0---0---0----0------|
a------------------------------------------------------|
e------------------------------------------------------|

e--0h2p0---0-----5-----5-----5-----5-----5-----5-------|
b--------3---3------3-----3-----3-----3-----3-----3----|
g------------------------------------------------------|
d------------------------------------------------------|
a------------------------------------------------------|
e------------------------------------------------------|

Chorus 3 - 03:55
acoustic guitar 1

e--------5---------|-------5---------|-------5-------|-------5--------||
b----3-------3---3-|---3-------3---3-|---3------3--3-|---3-------3--3-||
g------------------|-----------------|---------------|----------------||
d--2---2---2---2---|-4---4---4---4---|-0---0---0--0--|-0---0---0---0--||
a------------------|-----------------|---------------|----------------||
e------------------|-----------------|---------------|----------------||

guitar 2 - 03:55

e-------12---------|--------12--------|-------12--------|-------12--------||
b---10------10--10-|---10--------10---|---10-------10---|---10-------10---||
g-9----9---9---9---|-11--11----11--11-|-----------------|-----------------||
d------------------|------------------|-12--12---12--12-|-12--12---12--12-||
a------------------|------------------|-----------------|-----------------||
e------------------|------------------|-----------------|-----------------||

guitar 1

e--------5---------|-------5---------|-------5-------|-------5--------||
b----3-------3---3-|---3-------3---3-|---3------3--3-|---3-------3--3-||
g------------------|-----------------|---------------|----------------||
d--2---2---2---2---|-4---4---4---4---|-0---0---0--0--|-0---0---0---0--||
a------------------|-----------------|---------------|----------------||
e------------------|-----------------|---------------|----------------||

guitar 2

e-------12---------|--------12--------|-------12--------|-------12--------||
b---10------10--10-|---10--------10---|---10-------10---|---10-------10---||
g-9----9---9---9---|-11--11----11--11-|-----------------|-----------------||
d------------------|------------------|-12--12---12--12-|-12--12---12--12-||
a------------------|------------------|-----------------|-----------------||
e------------------|------------------|-----------------|-----------------||

guitar 1

e--------5---------|-------5---------|-------5-------|-------5--------||
b----3-------3---3-|---3-------3---3-|---3------3--3-|---3-------3--3-||
g------------------|-----------------|---------------|----------------||
d--2---2---2---2---|-4---4---4---4---|-0---0---0--0--|-0---0---0---0--||
a------------------|-----------------|---------------|----------------||
e------------------|-----------------|---------------|----------------||

guitar 2

e-------12---------|--------12--------|-------12--------|-------12--------||
b---10------10--10-|---10--------10---|---10-------10---|---10-------10---||
g-9----9---9---9---|-11--11----11--11-|-----------------|-----------------||
d------------------|------------------|-12--12---12--12-|-12--12---12--12-||
a------------------|------------------|-----------------|-----------------||
e------------------|------------------|-----------------|-----------------||

guitar 1

e--------5---------|-------5---------|-------5-------|-------5--------||
b----3-------3---3-|---3-------3---3-|---3------3--3-|---3-------3--3-||
g------------------|-----------------|---------------|----------------||
d--2---2---2---2---|-4---4---4---4---|-0---0---0--0--|-0---0---0---0--||
a------------------|-----------------|---------------|----------------||
e------------------|-----------------|---------------|----------------||

guitar 2 

e-------12---------|--------12--------|-------12--------|-------12--------||
b---10------10--10-|---10--------10---|---10-------10---|---10-------10---||
g-9----9---9---9---|-11--11----11--11-|-----------------|-----------------||
d------------------|------------------|-12--12---12--12-|-12--12---12--12-||
a------------------|------------------|-----------------|-----------------||
e------------------|------------------|-----------------|-----------------||



guitar 2 - 04.42

e--------5---------|-------5---------|
b----3-------3---3-|---3-------3---3-|
g--4---4---4---4---|-4---4---4---4---|
d------------------|-----------------|
a------------------|-----------------|
e------------------|-----------------|


e--------5---------|-------5---------|
b----3-------3---3-|---3-------3---3-|
g--2---2---2---2---|-2---2---2---2---|
d------------------|-----------------|
a------------------|-----------------|
e------------------|-----------------|

e--------5---------|-------5---------||
b----3-------3---3-|---3-------3---3-|| PLAY THIS RIFF 
g--0---0---0---0---|-0---0---0---0---||  TWICE ONLY
d------------------|-----------------||
a------------------|-----------------||
e------------------|-----------------||

outro

e--0h2p0---0------5--5/7--5------5-----5-----5-----5---|
b--------3---3----3--3/5--3---3-----3-----3-----3------|
g------------------------------------------------------|
d------------------------------------------------------|
a------------------------------------------------------|
e------------------------------------------------------|

e--0h2p0---0-----5-----5-----5-----5-----5-----5-------|
b--------3---3------3-----3-----3-----3-----3-----3----|
g------------------------------------------------------|
d------------------------------------------------------|
a------------------------------------------------------|
e------------------------------------------------------|

e--0h2p0---0-------------------------------------------|
b--------3---3------3-----3-----3-----3-----3-----3----|
g----------------6-----4-----2-----6-----4-----2-------|
d------------------------------------------------------|
a------------------------------------------------------|
e------------------------------------------------------|


e--0h2p0---0-----5-----5-----5-----5-----5-----5-------|
b--------3---3------3-----3-----3-----3-----3-----3----|
g------------------------------------------------------|
d------------------------------------------------------|
a------------------------------------------------------|
e------------------------------------------------------|

e--0h2p0---0-------------------------------------------|
b--------3---3------3-----3-----3-----3-----3-----3----|
g----------------2-----2-----2-----2-----2-----2-------|
d------------------------------------------------------|
a------------------------------------------------------|
e------------------------------------------------------|

e--0h2p0---0-------------------------------------------|
b--------3---3------3--2------0------------------------|
g----------------2--------2-----2----2---2---2----2----|
d----------------------------------0---0---0----0------|
a------------------------------------------------------|
e------------------------------------------------------|


fade out. . .

e--0h2p0---0-----5-----5-----5-----5-----5-----5-------|
b--------3---3------3-----3-----3-----3-----3--3-------|
g------------------------------------------------------|
d------------------------------------------------------|
a------------------------------------------------------|
e------------------------------------------------------|




Tablature notation:

h - hammer on
p - pull off
/ - slide
|| - play bar twice or as otherwise instructed
* - let e note ring slightly before hammering on f# note. 
Listen to the song to get the dynamic perfectly right. 


e-----------------------------------------------||
b---------------------TAB-----------------------||
g------------------DEDICATED -------------------||
d-----------------TO EADAOIN--------------------||
a--------------------XXXX-----------------------||
e-----------------------------------------------||


My email is ultimate-guitartabber@hotmail.com if you have any questions or
comments but constructive criticism only please.

14.02.09