Endeverafter - The Next Best Thing Text Guitar Tab

Learn song with the online tabulature player
Next Best Thing
EndeverafteR

INTRO:

e|---------------------------------------------|
B|----------7----------7----------7----------0-|
G|--------9----------9----------9----------9---|  x2
D|------9----------9----------9----------9-----|
A|---------------0-----------------------------|
E|----9---------------------0----------7-------|

VERSE:

e|---------------------------------------------|
B|----------7----------7----------7----------0-|
G|--------9----------9----------9----------9---|  x4
D|------9----------9----------9----------9-----|
A|---------------0-----------------------------|
E|----9---------------------0----------7-------|


PRE-CHORUS:

e|---------------------------------------------|
B|---------------------------------------------|
G|----4---------6---------2---------4----------|
D|----4---------6---------2---------4----------|
A|----2---------4---------0---------2---\Pick--|
E|--------------------------------------\Slide-|

CHORUS:

e|---------------------------------------------|
B|---------------------------------------------|
G|----6---------2---------9---------4----------|  x3
D|----6---------2---------9---------4----------|
A|----4---------0---------7---------2----------|
E|---------------------------------------------|


e|---------------------------------------------|
B|---------------------------------------------|
G|----2-------------------4--------------------|
D|----2-------------------4--------------------|
A|----0-------------------2--------------------|
E|---------------------------------------------|



This solo was pieced together from his live performance.  He plays harmonics just about 
but here is the basic idea.
SOLO:

e|--------------------------------------------------------------------------|
B|------------12\-----------9-10-9----9h10p9--------12-16b-19h21p17-16-16br\|
G|----9-8br-------/9-7/9-11--------11--------11p9-8-------------------------|
D|----------9---------------------------------------------------------------|
A|--------------------------------------------------------------------------|
E|--------------------------------------------------------------------------|

e|-----------------------------------------------------12-14b16-14-16-14-16-|
B|-----------------------------------------------12-14----------------------|
G|-------------11b13-11brbr-13-14-13-11-13~~~~\-----------------------------|
D|----9-11-9-11-------------------------------------------------------------|
A|--------------------------------------------------------------------------|
E|--------------------------------------------------------------------------|

e|----17-16-14----16b17-17-19-17-16-------------19----------19--------------|
B|-------------17-------------------17-22-21-------17----17----17-17--------|
G|-------------------------------------------21-------20-------------16-----|
D|--------------------------------------------------------------------------|
A|--------------------------------------------------------------------------|
E|--------------------------------------------------------------------------|

e|--------------------------------------------------------------------------|
B|--------------------------------------------------------------------------|
G|---19b21r19-17brbr-16\----------------------------------------------------|
D|--------------------------------------------------------------------------|
A|--------------------------------------------------------------------------|
E|--------------------------------------------------------------------------|