England Dan - Id Really Love To See You Tonight Text Guitar Tab

Learn song with the online tabulature player
-----------------------------------------------------------------------------
      I'D REALLY LOVE TO SEE YOU TONIGHT - England Dan & John Ford Coley
-----------------------------------------------------------------------------

Tabbed by: Matt Broback
e-mail: 37hambone@gmail.com

Tuning:  E A D G

VERSE 1
|----------------------------------------------|
|------3---35-0---3----------------------------|
|---3-3--------3-3-------0---05---03---33---3-3|
|3-3------------------1/3----------------------|

VERSE 2
|------------------------------------------------|
|------3----------3------------------------------|
|---3-3--------3-3-------0---35---3-3-3-3-3-3-3--|
|3-3-------13-3-------1/3-----------------------5|

CHORUS                                  1.           2.   3.,4.,5.
|--------------||----------------||----|------------|----|--------------|
|--------------||:--------------:||----|------------|3---|--------------|
|--------------||:----------35--:||----|------------|----|--------------|
|6--6--655--5--||-566-6--655-----||6---|1-----------|----|66666666-6-345|

VERSE 3
|------------------------------------------------|
|------3---3------3------------------------------|
|----3---------3-3-------0---35---3-3-3-3-3-3-3--|
|/3-3-------3-3-------1/3-----------------------5|

REPEAT CHORUS

BRIDGE
|-------------------------------------------------------------|
|-------------------------------------------------------------|
|5-5535-3--------------8--8-7-5--5535-3-------33-333-33333----|
|--------5-5535-56-68-8----------------5-5535--------------345|

REPEAT CHORUS TO FADE