Enrique Iglesias - Away Text Guitar Tab

Learn song with the online tabulature player
Standard Tuning


INTRO :


e----------------------------------------------------------------|
B----------------------------------------------------------------|
G-2-2/3-----3/5-3-2-2/3-0---2-2/3-----3/5-3-2-2/3-0------0-------|
D-------------------------3-------------------------3------3-----|
A----------------------------------------------------------------|
E----------------------------------------------------------------|

e----------------------------------------------------------------|
B----------------------------------------------------------------|
G-3-2---------3-2-------------3-2-3-3/5-3-2-3--2-3-3/5-3-5-5/7---|
D-----0-3-3-3-----0-3-3-3----------------------------------------|
A----------------------------------------------------------------|
E----------------------------------------------------------------|