Enrique Iglesias - Cuando Me Enamoro Text Guitar Tab

Learn song with the online tabulature player
This is the tab of the electric guitar in this song....
They are the same all the time, each chord in an Arpeggio
I play it out by ear, because I do not find them anywhere :s

Esta tablatura es para la parte de la guitarra electrica en esta canción.
Son los mismos todo el tiempo, cada uno va con un acorde
me toco sacarla por oído ya que no la encontre por ningun lado :s



Tuning: Standard

Chords used in this tab

   D#m      F#                  C#                         G#
e|--6--|  |--6--|  |----------------------------| |---------------------|
b|--7--|  |--7--|  |------9----------9----------| |----9--------9-------|
G|--8--|  |--6--|  |--10-----10---8-----8---10--| |-8----8---6----6---8-|
D|--x--|  |--x--|  |----------------------------| |---------------------|
A|--x--|  |--x--|  |----------------------------| |---------------------|
E|--x--|  |--x--|  |----------------------------| |---------------------|


   A#m                    F#* 
e|--1--|  |------9----------9---------9----------|
b|--2--|  |----------------------------------11--|
G|--3--|  |--11-----11--10-----10--8------8------|
D|--3--|  |--------------------------------------|
A|--1--|  |--------------------------------------|
E|--1--|  |--------------------------------------|


Intro

D#m - F# - C# x2

Verse x2:

D#m - F# - C# - G#

Prechorus:

A#m - F#

Chorus:

C# x4 - G# x4 - F#* x2 - C# x2

Intro

Verse x2

Prechorus

Chorus x2

OUTRO (same intro)

Ends in C# (Chord)



Twitter @LeooSaGoh