Enrique Iglesias - Dont Turn Off The Lights Text Guitar Tab

Learn song with the online tabulature player
intro
e|-3-----3----------3-----3-------|---------|
b|---3-----3---3------3-----3---3-|---------|
g|-----0-----0-0--------0-----0-0-|---------|
d|--------------------------------|-5-5-5-5-|
a|--------------------------------|-5-5-5-5-|
e|--------------------------------|-3-3-3-3-|
                                   palm mute
chorus and e i e i a part
e|-------------------19----15----|
b|----------------15----15----15-|
g|------7----5-------------------|
d|-5----7----5-------------------|
a|-5----5----3-------------------|
e|-3-----------------------------|

verse gtr.1
e|-------------------------------|
b|-12----------12--------------3-|
g|----14-12-------14-12----0-2---|
d|-------------------------------|
a|-------------------------------|
e|-------------------------------|

verse gtr.1 continued
e|-------------------------------------|
b|-12----------12----------------------|
g|----14-12-------14-12----7-4-5-4-0-0-|
d|-------------------------------------|
a|-------------------------------------|
e|-------------------------------------|

verse gtr.2
e|---------------------------------------------|
b|---------------------------------------------|
g|--------------14-14-14--12-12-12-12-12-12-12-|
d|-12-12-12-12--12-12-12--10-10-10-10-10-10-10-|
a|-10-10-10-10---------------------------------|
e|---------------------------------------------|

interlude
e|----------------------------------------------|
b|----------------------------------------------|
g|------2---------2---------11-9----13--11-9----|
d|-2----2----2----2----2----11-9----13--11-9----|
a|-2----0----2----0----2----9--7----11--9--7----|
e|-0---------0---------0------------------------|

- thats pretty much every part of the song, just fill in the parts i missed
- for the e i e i a part, just palm mute the power chords
- if you have trouble moving from the high notes to down the neck again on the
chorus, then just substitute the last high note with an open g, that makes it
easier for me anyhow