Enrique Iglesias - Dont You Forget About Me Text Guitar Tab

Learn song with the online tabulature player
Enrique Inglesia – Don’t You Forget About Me
Chris - cadams102@nc.rr.com :)

Part A (verse)
   Bm                   E
|---------------------------------------|
|------2h3--------2h3-------------------|
|---------4----------2--1------1--------|
|----4----------4-----------2------2----|
|--2----------2-----------2---2—-2---2--|
|-----------------------0---------------|

|--------------------------------------||
|------0h2------0h2---2------2--------•||
|---------2---------2-----2------2-----||
|----2--------2---------2---2—-2—--2---||
|--0--------0---------0---------------•||
|--------------------------------------||
Bridge / Chorus
   Fm   E  Dsus           E
|-2----2-0-|----------0----------------------|
|-2----2-0-|•------3------3----------0-------|
|-2----2-1-|-----2---2—-2---------1-------1--|
|-4----4-2-|---0----------------2---2---2----|
|-4----4-2-|•--------------------------------|
|-2----2-0-|------------------0--------------|
  A (something)  Fm
|-----------------------------------|
|--------0--------------2----------•|
|-----2------2-------2------2-------|
|---2---2--2-------4---4--4---------|
|-0--------------------------------•|
|----------------2------------------|

Solo:
-----------------------------------------------------------------|
-----2-----------------------------------------------------------|
-2h4---4-4h2/4--------------6-9---4\2--4-4/6-6-------------------|
----------------------6h7-9--------------------------------------|
-----------------------------------------------------------------|
-----------------------------------------------------------------|

------------------------------------------------------------------|
----10---9-----7h5-5/7----7h9h7h5------------5---------7h5h7------|
-6/----6----6-------------------------1h2/6----4h2----------------|
---------------------------------------------------4--------------|
------------------------------------------------------------------|
------------------------------------------------------------------|

It's not too hard to figure out where the words fit it, if you need help with that just 
at the other tabs for placement, it's the same chords just with the picking pattern 
out.  Enjoy!