Enrique Iglesias - Si Tu Te Vas Text Guitar Tab

Learn song with the online tabulature player
Enrique Iglesias - Si Tu Te Vas
from album Enrique Iglesias (1995)

Letra: Enrique Iglesias
Musica: Enrique Iglesias & Roberto Morales
___________________________________________

Standard Tuning

Intro

e-|----------2-----------2------|--|
B-|--------2---2-------2---2----|--|
G-|------4-------4---4-------4--|--|
D-|--4--------------------------|--|
A-|-----------------------------|--|
E-|-----------------------------|--|

e-|----------2-----------2------|--|
B-|--------2---2-------2---2----|--|
G-|------4-------4---4-------4--|--|
D-|--2--------------------------|--|
A-|-----------------------------|--|
E-|-----------------------------|--|


This tablature assumes no capo, but a capo at 2nd fret greatly facilitates it.

-Navigator386