Enter The Haggis - Donald Wheres Yer Trousers Text Guitar Tab

Learn song with the online tabulature player
Donald Where's Yer Trousers?-- Enter the Haggis

Tabbed by: T_T
Email: heavyrayne@ymail.com

From Enter the Haggis' album "Let the Wind Blow High".  If there are any questions that 
relevant to this tab, do not hesitate to email me.  Comment and/or rate it suits you.

Tuning (From bottom to top): C Ab Db G

C - Tune E down two full steps
Ab- Tune A down half of a step
Db- Tune D down half of a step
G - (You have no need to re-tune this string. It is not played in this song.)


Riff 1

G -|-------------------------------------------------------------|
Db-|--4---4-------------2-2---2h4p2-------0----------------------|
Ab-|----4---4---3-----2-----2-----------0---0----0---------------|
C -|----------5-----3-----------------1--------1---0-3-5--00-35--|

Riff 2

G -|--------------------------------------------------------------|
Db-|--4---4-------------2-2---2h4p2-------0-----------------------|
Ab-|----4---4---3-----2-----2-----------0---0----0-0-3-0----------|
C -|----------5-----3-----------------1--------1----------00-3-5--|

Riff 3

G -|-------------------------------------------------------------|
Db-|--4---44---------22---------00-------------------------------|
Ab-|----4----4-----2----2-----0----0-----------------------------|
C -|-------------3----------1--------0-3-5--00-3-5---------------|

Bridge

G -|-------------------------------------------------------------|
Db-|--4-----------------2-----------------0----------------------|
Ab-|-------------------------------------------------------------|
C -|------------------------------------------------------0-3-5--|


Order:
Riff 1
Riff 2
Riff 1 (3x)
Riff 3 (7x)
Riff 1 (2x)
Riff 3 (6x)
Bridge (3x)
Riff 1 (3x)
Riff 3 (2x)
Riff 1