Envy On The Coast - Lapse Text Guitar Tab

Learn song with the online tabulature player
Note: I believe the way this song is ACTUALLY played is in Open D. Check out another tab 
if you'd like to learn those versions, but honestly it will sound very similar to this 
one and this one may even sound better in some places. Also you only have to mess 
with one string to go into Drop D tuning :)

   Intro
e|-------0--0------0-------0----0---0----------------|
B|-------0--0------0-------0----0---0----------------|
G|-x-x-8-9--x------8-------8----x---8----------------|
D|-x-x-9-9--11-----6-------9----11--6----------------|
A|-x-x-7-7--9------6-------7----9---6----------------|
D|--------------6--6----------------6----------------|

     The road... into..   looked...
e|---0-----------0--------0--------------|
B|---0-----------0--------0--------------|
G|---8-----------x--------8--------------|
D|---9-----------11-------6--------------|
A|---7-----------9--------6--------------|
D|------------------------6--------------| x2

    Oh sweet - predicament   can't stop can't   change the evident
e|--0------------------------0------------------0-------------------|
B|--0------------------------0------------------0-------------------|
G|--6------------------------4------------------3-------------------|
D|--6------------------------2------------------4-------------------|
A|--4------------------------2------------------4-------------------|
D|---------------------------2------------------4-------------------|

     Predisposed.. Forget.. Story...
e|---0--------------0--------0--------------|
B|---0--------------0--------0--------------|
G|---8--------------x--------8--------------|
D|---9--------------11-------6--------------|
A|---7--------------9--------6--------------|
D|---------------------------6--------------| x2

   Chorus
   (Dreams)(Seems)  (Be) (Remind you not to forget)
e|-0-------0-------0-----0----------------------------------------|
B|-0-------0-------0-----0----------------------------------------|
G|-4-------x-------9-----3----------------------------------------|
D|-2-------4-------6-----4----------------------------------------|
A|-2-------2-------6-----4----------------------------------------|
D|-2---------------6-----4----------------------------------------|

   (Me)   (seems) (be)  (remind you not to forget to)
e|-0------0-------0-----0---------------------0--------------|
B|-0------0-------0-----0---------------------0--------------|
G|-4------x-------0-----9---------------------3--------------|
D|-2------4-------8-----6---------------------4--------------|
A|-2------2-------6-----6---------------------4--------------|
D|-2--------------5-----6---------------------4--------------|

   Before next verse
e|-------------------------------------------------------|
B|-----------------------7-4--------------------7-4------|
G|-6-6s8-8s6-6-6-6s4-4-4--------8s6-6-6-6s4-4-4----------|
D|-------------------------------------------------------|
A|-------------------------------------------------------|
D|-------------------------------------------------------|

      I know     Feels     My bones
e|---0-----------0--------0--------------|
B|---0-----------0--------0--------------|
G|---8-----------x--------8--------------|
D|---9-----------11-------6--------------|
A|---7-----------9--------6--------------|
D|------------------------6--------------| x2

    Oh sweet - predicament   can't hide can't   change the evident
e|--0------------------------0------------------0-------------------|
B|--0------------------------0------------------0-------------------|
G|--6------------------------4------------------3-------------------|
D|--6------------------------2------------------4-------------------|
A|--4------------------------2------------------4-------------------|
D|---------------------------2------------------4-------------------|

     Redisposed    Just a    To portray
e|---0--------------0--------0--------------|
B|---0--------------0--------0--------------|
G|---8--------------x--------8--------------|
D|---9--------------11-------6--------------|
A|---7--------------9--------6--------------|
D|---------------------------6--------------| x2

    (Me)   (seems) (be)  (remind you not to forget to)
e|-0-------0-------0-----0----------------------------------------|
B|-0-------0-------0-----0----------------------------------------|
G|-4-------x-------9-----3----------------------------------------|
D|-2-------4-------6-----4----------------------------------------|
A|-2-------2-------6-----4----------------------------------------|
D|-2---------------6-----4----------------------------------------|

    (Me)   (seems) (be)  (remind you not to forget to)
e|-0------0-------0-----0----------------------0---------------|
B|-0------0-------0-----0----------------------0---------------|
G|-4------x-------0-----9----------------------x---------------|
D|-2------4-------8-----6----------------------4---------------|
A|-2------2-------6-----6----------------------2---------------|
D|-2--------------5-----6--------------------------------------|

Bridge

       meeeee
e|-----0--------0-0-0--0-0-0-0--0--|
B|-----0--------0-0-0--0-0-0-0--0--|
G|-----8--------0-x-0--8-0-x-4--3--|
D|-----6--------8-4-11-6-8-4-2--4--|
A|-----6--------6-2-9--6-6-2-2--4--|
D|-----6--------5---8--6-5---2--4--|

e|---0--0----0---0--0--0-------|
B|---0--0----0---0--0--0-------|
G|---8--x----8---8--x--8-------|
D|---9--11---6---9--11-6-------|
A|---7--9----6---7--9--6-------|
D|-----------6------9--6-------|

      Now I've dodged...
e|---0----------------0----0--------------|
B|---0----------------0----0--------------|
G|---8----------------x----8--------------|
D|---9----------------11---6--------------|
A|---7----------------9----6--------------|
D|--------------------9----6--------------| x2

    Sweet ... indifference   I can't stop...    Can't change...
e|--0------------------------0------------------0-------------------|
B|--0------------------------0------------------0-------------------|
G|--6------------------------4------------------3-------------------|
D|--6------------------------2------------------4-------------------|
A|--4------------------------2------------------4-------------------|
D|---------------------------2------------------4-------------------|

     Predisposed...   Perpetual      I refuse
e|---0----------------0------------0--------------|
B|---0----------------0------------0--------------|
G|---9----------------x------------8--------------|
D|---9----------------11-----------6--------------|
A|---7----------------9------------6--------------|
D|---------------------------------6--------------| x2

    Situate...            Underneath        Protects
e|--0------------------------0------------------0-------------------|
B|--0------------------------0------------------0-------------------|
G|--6------------------------4------------------3-------------------|
D|--6------------------------2------------------4-------------------|
A|--4------------------------2------------------4-------------------|
D|---------------------------2------------------4-------------------|

   (Dreams)(Seems)  (Be) (Remind you not to forget)
e|-0-------0-------0-----0----------------------------------------|
B|-0-------0-------0-----0----------------------------------------|
G|-4-------x-------9-----3----------------------------------------|
D|-2-------4-------6-----4----------------------------------------|
A|-2-------2-------6-----4----------------------------------------|
D|-2---------------6-----4----------------------------------------|

   (Me)   (seems) (be)  (remind you not to forget to remember meee)
e|-0------0-------0-----0---------------------0--------------|
B|-0------0-------0-----0---------------------0--------------|
G|-4------x-------0-----9---------------------3--------------|
D|-2------4-------8-----6---------------------4--------------|
A|-2------2-------6-----6---------------------4--------------|
D|-2--------------5-----6---------------------4--------------|