Eraserheads - Sembreak Text Guitar Tab

Learn song with the online tabulature player
-----------------------------------------------------------------------------
SEMBREAK - Eraserheads
-----------------------------------------------------------------------------
Tabbed by: Carl Gabriel C. Culvera
Email: wizard_effect@yahoo.com

Tuning: Standard

Verse: “Walang silbi sa bahay kundi bumabad sa telepono o kaya’y kasama ang buong 
barkada nakatambay sa may kanto…”

E|--------------------------------------------------------------------------|
B|--------------------------------------------------------------------------|
G|-11-11-11--9-9-9-9--11-11-11--9-9-9-9--11-11-11--9-9-9-9--11-11-11--7-7-7-|
D|-11-11-11--9-9-9-9--11-11-11--9-9-9-9--11-11-11--9-9-9-9--11-11-11--7-7-7-|
A|-9--9--9---7-7-7-7--9--9--9---7-7-7-7--9--9--9---7-7-7-7--9--9--9---9-9-9-|
E|--------------------------------------------------------------------------|

E|------------------------------------------------------------------------|
B|------------------------------------------------------------------------|
G|-7------9-----9-----9-----9---------------------------------------------|
D|-7------8-----8-----8-----8-----10-----10-11-11-11-11-11-11-11-11-11-11-|
A|-9--7-7---7-7---7-7---7-7-------9------9--11-11-11-11-11-11-11-11-11-11-|
E|----------------------------8-8----8-8----9--9--9--9--9--9--9--9--9--9--|

E|-------------------|
B|-------------------|
G|-------------------|
D|-11-11-11-11-11-11-|
A|-11-11-11-11-11-11-|
E|-9--9--9--9--9--9--|

Chorus: “Naaalala kita pag umuulan…”

E|------------------------------------------------------------| Repeat this
B|------------------------------------------------------------| tab twice
G|------11-11--9-9-9--7-9-6h7p6-------11-11--9-9-9--7-9-6h7p6-| then…
D|-9-9--11-11--9-9-9-------------9-9--11-11--9-9-9------------|
A|-9-9--9--9---7-7-7-------------9-9--9--9---7-7-7------------|
E|-7-7---------------------------7-7--------------------------|

“Ilang bukas pa ba bago tayo ay magkita?”

E|--------------------------------------------------------------------------|
B|--------------------------------------------------------------------------|
G|--------------------------------------------------------------------------|
D|-6-6-6-6-6-6-6-6--9-9-9-9-9-9-9-9--11-11-11-11-11-11-11-11--8-8-8-8-8-8-8-|
A|-6-6-6-6-6-6-6-6--9-9-9-9-9-9-9-9--11-11-11-11-11-11-11-11--8-8-8-8-8-8-8-|
E|-4-4-4-4-4-4-4-4--7-7-7-7-7-7-7-7--9--9--9--9--9--9--9--9---6-6-6-6-6-6-6-|

E|--------------------------------------------------------------------------|
B|--------------------------------------------------------------------------|
G|--------------------------------------------------------------------------|
D|-8--9-9-9-9-9-9-9-9--8-8-8-8-8-8-8-8--9-9-9-9-9-9-9-9--8-8-8-8-8-8-8-8--9-|
A|-8--9-9-9-9-9-9-9-9--8-8-8-8-8-8-8-8--9-9-9-9-9-9-9-9--8-8-8-8-8-8-8-8--9-|
E|-6--7-7-7-7-7-7-7-7--6-6-6-6-6-6-6-6--7-7-7-7-7-7-7-7--6-6-6-6-6-6-6-6--7-|

E|--------------------------------------------------------------|
B|--------------------------------------------------------------|
G|--------------------------------------------------------------|
D|-9-9-9-9-9-9--11-11-11-11-11-11-11-11-11-11-11-11-11-11-11-11-|
A|-9-9-9-9-9-9--11-11-11-11-11-11-11-11-11-11-11-11-11-11-11-11-|
E|-7-7-7-7-7-7--9--9--9--9--9--9--9--9--9--9--9--9--9--9--9--9--|

Interlude:

E|----------------------------------------------------------------| Repeat
B|-9--9-9--9--9-9--9--9-9--9--9-9--9--9-9--9--9-9--9--9-9--9--9-9-| this tab
G|-8--8-8--8--8-8--8--8-8--8--8-8--8--8-8--8--8-8--8--8-8--8--8-8-| twice
D|-6--6-6--6--6-6--6--6-6--6--6-6--6--6-6--6--6-6--6--6-6--6--6-6-| then…
A|----------------------------------------------------------------|
E|----------------------------------------------------------------|

Verse: “May gas wala namang kotse…”

E|-------------------------------------------------------------------------|
B|-------------------------------------------------------------------------|
G|-11-11-11--9-9-9-9--11-11-11------9-----9-----9-----9--------------------|
D|-11-11-11--9-9-9-9--11-11-11------8-----8-----8-----8--11-11-11-11-11-11-|
A|-9--9--9---7-7-7-7--9--9--9---7-7---7-7---7-7---7-7----11-11-11-11-11-11-|
E|-------------------------------------------------------9--9--9--9--9--9--|

E|--------------------------------------------------------------------------|
B|--------------------------------------------------------------------------|
G|-----11-11-11--9-9-9-9--11-11-11--9-9-9-9--11-11-11--9-9-9-9--11-11-11--9-|
D|-11--11-11-11--9-9-9-9--11-11-11--9-9-9-9--11-11-11--9-9-9-9--11-11-11--9-|
A|-11--9--9--9---7-7-7-7--9--9--9---7-7-7-7--9--9--9---7-7-7-7--9--9--9---7-|
E|-9------------------------------------------------------------------------|

E|--------------------------------------------------------------------------|
B|--------------------------------------------------------------------------|
G|-9-9-9------9-----9-----9-----9-------------------------------------------|
D|-9-9-9------8-----8-----8-----8-----10-----10--11-11-11-11-11-11-11-11-11-|
A|-7-7-7--7-7---7-7---7-7---7-7-------9------9---11-11-11-11-11-11-11-11-11-|
E|--------------------------------8-8----8-8-----9--9--9--9--9--9--9--9--9--|

E|----------------------| Repeat the first tab of Chorus then…
B|----------------------|
G|----------------------|
D|-11-11-11-11-11-11-11-|
A|-11-11-11-11-11-11-11-|
E|-9--9--9--9--9--9--9--|

“Ilang bukas pa ba bago tayo ay magkita…”

E|-------------------------------------------------------------------------|
B|------------------------------------------------8---------------8--------|
G|-9~--7\6/7--6-7/9-9/11----9~--7\6/7--6~-6/7-7/9---9-7~--6/8-6/9---9----7-|
D|-----------------------11--------------------------------------------8---|
A|-------------------------------------------------------------------------|
E|-------------------------------------------------------------------------|

E|------------------------------------------------------| Repeat Interlude
B|---6------------8-------------10-------10-------10----| twice then…
G|-----7-----9------9-----11-------11-------11-------11-|
D|-8------10---10------12----12-------12-------12-------|
A|------------------------------------------------------|
E|------------------------------------------------------|

Verse: “Hanggang sa mabutas tong maong tsaka bibili uli ng bago…”

E|---------------------------------------| After this, do the pick slide
B|---------------------------------------| then…
G|-----9-----9-----9-----9---------------|
D|-----8-----8-----8-----8-----10-----10-|
A|-7-7---7-7---7-7---7-7-------9------9--|
E|-------------------------8-8----8-8----|

“Hanggang dito na lang ang liham ko…”

E|--------------------------------------------------------------------------|
B|--------------------------------------------------------------------------|
G|-9-9-9--11-11-11-11--9-9-9--11-11-11-11--9-9-9--11-11-11-11--9-9-9--11-11-|
D|-9-9-9--11-11-11-11--9-9-9--11-11-11-11--9-9-9--11-11-11-11--9-9-9--11-11-|
A|-7-7-7--9--9--9--9---7-7-7--9--9--9--9---7-7-7--9--9--9--9---7-7-7--9--9--|
E|--------------------------------------------------------------------------|

E|-------------------------------------------------------------------------|
B|-------------------------------------------------------------------------|
G|-11------9-----9-----9-----9---------------------------------------------|
D|-11------8-----8-----8-----8-----10----10--11-11-11-11-11-11-11-11-11-11-|
A|-9---7-7---7-7---7-7---7-7-------9-----9---11-11-11-11-11-11-11-11-11-11-|
E|-----------------------------8-8----8-8----9--9--9--9--9--9--9--9--9--9--|

E|-------------------| Repeat the tab of Second Chorus then…
B|-------------------|
G|-------------------|
D|-11-11-11-11-11-11-|
A|-11-11-11-11-11-11-|
E|-9--9--9--9--9--9--|

End: “Naaalala kita…”

E|----------------------------------------------------------| Repeat this tab
B|----------------------------------------------------------| twice…
G|------11-11-11--9-9-9--9-9-9-------11-11-11--9-9-9--9-9-9-|
D|-9-9--11-11-11--9-9-9--9-9-9--9-9--11-11-11--9-9-9--9-9-9-|
A|-9-9--9--9--9---7-7-7--7-7-7--9-9--9--9--9---7-7-7--7-7-7-|
E|-7-7--------------------------7-7-------------------------|

“Naaalala kita…”

E|-12b-12b-12b-12b-12b-12b-12b-12b-17b-17b-17b-17b-13p12----13p12----13p12-|
B|-------------------------------------------------------13-------13-------|
G|-------------------------------------------------------------------------|
D|-------------------------------------------------------------------------|
A|-------------------------------------------------------------------------|
E|-------------------------------------------------------------------------|

E|----13p12----13p12----13p12----13p12----13p12------------------|
B|-13-------13-------13-------13-------13-------13-13-13-13-13\1-|
G|---------------------------------------------------------------|
D|---------------------------------------------------------------|
A|---------------------------------------------------------------|
E|---------------------------------------------------------------|