Eric Bibb - Shine On Text Guitar Tab

Learn song with the online tabulature player
-------------------------------------------------------------------------------
                             SHINE ON - Eric Bibb
-------------------------------------------------------------------------------
Tabbed by: Joe Mamma
Email: N/A

Tuning: Standard

The intro and the riff that is played throughout the entire song:

e|---------------------------------------------------------------------------|
B|---------------------------------------------------------------------------|
G|---------------------------------------------------------------------------|
D|---------------------------------------------------------------------------|
A|-------0--2--3--3--2--2--------0--2--3--3--2--2--------0--2--3--3--2--2----|
E|-3--3--------------------0--0--------------------3--3----------------------|

e|---------------------------------------------------------------------------|
B|---------------------------------------------------------------------------|
G|----------------------0h2p0------------------------------------------------|
D|----------------0--2---------2---------------------------------------------|
A|-------0--2--3-------------------------------------------------------------|
E|-0--0----------------------------------------------------------------------|

For the chorus it's:

Cmaj
Keeping your eyes on

     Gmaj     Dsus2
That mountain top. . .