Eric Church - Country Music Jesus Text Guitar Tab

Learn song with the online tabulature player
-------------------------------------------------------------------------------
                             Country Music Jesus - Eric Church
-------------------------------------------------------------------------------
Tabbed by: NCFencer

Tuning: Drop C

e|---------------------------------------------------------------------------|
B|-----3---------3-----3--3---------3----------------------------------------|
G|-----2---------2-----2--2---------2----------------------------------------|
D|-0---0---------0--0--0--0---------0----------------------------------------|
A|-0---0--3b-3b--0--0--0--0--3b-3b--0----------------------------------------|
E|-0----------------0--------------------------------------------------------|
   *                   *