Eric Hutchinson - Rock And Roll Text Guitar Tab

Learn song with the online tabulature player
Intro/Verse
G----------------------------------------|
D----------------------------------------| (repeat x4)
A-11---1/55---5/66---6\33----------------| Slide down to 1 and begin again (1 not 11)
E----------------------------------------|

Chorus
G---------------------------------------|
D--------8-888--------------------------|
A-6-666--------8-888--------------------| (repeat x6)
E--------------------6-666--------------|

Verse
G----------------------------------------|
D----------------------------------------| (repeat x4)
A-11---1/55---5/66---6\33----------------| Slide down to 1 and begin again (1 not 11)
E----------------------------------------|

Chorus
G---------------------------------------|
D--------8-888--------------------------|
A-6-666--------8-888--------------------| (repeat x6)
E--------------------6-666--------------|

Bridge
G----------------------------------------|
D----------------------------------------|
A--3-3---------6-5-----------------------| (repeat x4) on the 4th time deaden the 
E------4-4-6-6---------------------------|  notes, to give it some more grunt

Last part of bridge
G----------------------------------------|
D-------------------3~-------------------|
A-3~--------6~---------------------------|
E----------------------------------------|

Chorus
G---------------------------------------|
D--------8-888--------------------------|
A-6-666--------8-888--------------------| (played repeatedly)
E--------------------6-666--------------|