Erik Hassle - Dont Bring Flowers Text Guitar Tab

Learn song with the online tabulature player
This is the tab for the intro and verse for:

Erik Hassle
Don't Bring Flowers

Standard Tuning

e|-----------------------|
B|-----------------------|
G|-----------------------|
D|-----------3-2---0--2--|
A|--0--3---------3-------|
E|-------1-1-------------|

e|-----------------------|
B|-----------------------|
G|-----------------------|
D|-----------3-2---0--2--|
A|--0--3---------3-------|
E|-------1-1-------------| ect...

Pretty straightforward...