Erin Mccarley - Love Save The Empty Text Guitar Tab

Learn song with the online tabulature player
Love, Save The Empty
Artist: Erin McCarley
Album: Love, Save The Empty

Tuning: Eb Ab Db Gb Bb Eb (1/2 Step Down)

Contributor: Daniel Schnall


Intro/Verse
e|-----------------------------------------------|
B|-----------------------------------------------|
G|-----------------------------------------------|
D|-----------------------------------------------|
A|--3-3----3----3-3----3-------------------------|
E|-------3---3-------3---3--4-4--3-4-3--5-5-6-6--|

Pre-Chorus
e|--1---5--|
B|--1---5--|
G|--2---5--|
D|--3---7--|
A|--3---7--|
E|--1---5--|

Chorus
e|--8---1---5---1--|
B|--8---1---5---1--|
G|--9---2---5---2--|
D|--10--3---7---3--|
A|--10--3---7---3--|
E|--8---1---5---1--|


Notes:
Erin doesn't really play much on the Intro/Verses, it's mostly piano