Erin Mccarley - Pony Text Guitar Tab

Learn song with the online tabulature player
Pony- Erin McCarley
Standard tuning

A lot of people have been asking for it, so here it is.
If you want to hear it played:
http://www.youtube.com/watch?v=kAWkfiMMzT4&feature=channel

Intro/Verse

I hit the 6th string then the 3rd when I play the first three chords, and then the 6th 
2nd string when I play the last chord of the Intro/Verse. Then I strum it a little before 
chorus the last time.

E|-4--7--4--4-|
B|-4--7--4--5-|
G|-4--8--6--6-|
D|-6--9--4--6-|
A|-6--9--4--4-|
E|-4--7--2----|

Chorus

E|-0--7--4-|
B|-0--7--4-|
G|-1--8--6-|
D|-2--9--4-|
A|-2--9--4-|
E|-0--7--2-|


End the Chorus with: Strum that a few times.

E|-4---|
B|-5---|
G|-6---|
D|-6---|
A|-4---|
E|-x---|


"It's okay, It's okay"

E|7--2--4-|
B|7--2--4-|
G|8--6--4-|
D|9--4--4-|
A|9--4--6-|
E|7--2--4-|

Play the verse again

E|-4--7--4--4-|
B|-4--7--4--5-|
G|-4--8--6--6-|
D|-6--9--4--6-|
A|-6--9--4--4-|
E|-4--7--2----|

Chorus

E|-0--7--4-|
B|-0--7--4-|
G|-1--8--6-|
D|-2--9--4-|
A|-2--9--4-|
E|-0--7--2-|


"It's okay, It's okay"

E|7--2--4-|
B|7--2--4-|
G|8--6--4-|
D|9--4--4-|
A|9--4--6-|
E|7--2--4-|


Bridge


E|------------0-|
B|------------0-|
G|------------1-|
D|6--5--4--3--2-|
A|6--6--4--4--2-|
E|4--3--2--1--0-|

Chorus

E|-0--7--4-|
B|-0--7--4-|
G|-1--8--6-|
D|-2--9--4-|
A|-2--9--4-|
E|-0--7--2-|


End the Chorus with: Strum that a few times.

E|-4---|
B|-5---|
G|-6---|
D|-6---|
A|-4---|
E|-x---|

"It's okay, It's okay"

E|7--2--4-|
B|7--2--4-|
G|8--6--4-|
D|9--4--4-|
A|9--4--6-|
E|7--2--4-|

End the song with: Strum that a few times.

E|-4---|
B|-5---|
G|-6---|
D|-6---|
A|-4---|
E|-x---|