Eskimo Joe - Foreign Land Text Guitar Tab

Learn song with the online tabulature player
Guitar 1
|-------------------------------------------------------------|
|-------------------------------------------------------------|
|-------------------------------------------------------------|
|----7777777777777777-55555555-33333333-----------------------|
|----7777777777777777-55555555-33333333-----------------------|
|----5555555555555555-33333333-11111111-----------------------|

Guitar 2
|-------------------|
|-------------------|
|-------------------|
|----5/777-5--2-----| repeat while guitar 1 plays as above
|----5/777----------|
|----3/555----------|

__________________________________________________________________

Guitar 1
|-------------------------------------------------------------|
|-------------------------------------------------------------|
|-------------------------------------------------------------|
|-------------------------------------------------------------|
|---------------------------------------------5-2-------5-2---|
|--1-3------3-1------1-2------2-3----2-1----1---------1-------|

Guitar 2
|--------------------------------------------------------------|
|--------------------------------------------------------------|
|-------------------7---7--------------------------------------|
|-5--5------3---3---7---7--5---------4-3---33333333-55555555---| 
|-5--5------3---3---5---5--5---------4-3---33333333-55555555---| 
|-3--3------1---1----------3---------2-1---11111111-33333333---|


__________________________________________________________________

Repeat First Line for start of verse (guitar 1 only)

__________________________________________________________________

For 'if this is what it feels to love, then i can feel that' section,
play Line 2, both guitars.