Eva And Manu - Feet In The Water Text Guitar Tab

Learn song with the online tabulature player
--------------------------------------------------------------------
                  Feet in the Water - Eva & Manu
--------------------------------------------------------------------

Tabbed by: Markus Palonen
E-mail: remedimusic(at)gmail.com

Tuning: Drop D

Manu himself plays this song capo in 3rd fret, but this tab is made
according to capo on 5th fret.

The chorus chords are somewhat wrong, but you can spice it up with
your own variations.

Intro

e|0---------------0---------------0---------------0---------------|
B|------------1---------------1---------------1---------------1---|
G|--2---2-0h2---2---2---2-0h2---2---2---2-0h2---2---2---2-0h2---2-|
D|----------------------------------------------------------------|
A|0---0---0---0---------------------------------------------------|
D|----------------3---3---3---3---0---0---0---0---0---0---0---0---|  x2




e|0-------0-------------------------------------------------------|
B|----------------1-------1-------3-------3-------3-------3-------|
G|--2---2---2---2---2---2---2---2---2---2---2---2---2---2---2---2-|
D|----------------------------------------------------------------|
A|0---0---0---0---------------------------------------------------|
D|----------------3---3---3---3---0---0---0---0---0---0---0---0---|

Still I sit here where you left me alone/ my feet in the water, feet in the water


e|0-------0-------------------------------------------------------|
B|----------------1-------1-------3-------3-------3-------3-------|
G|--2---2---2---2---2---2---2---2---2---2---2---2---2---2---2---2-|
D|----------------------------------------------------------------|
A|0---0---0---0---------------------------------------------------|
D|----------------3---3---3---3---0---0---0---0---0---0---0---0---| 

I took the road you didn't dare to go/ rocks on my chest and knees on bruises


e|0---------------0---------------0---------------0---------------|
B|------------1---------------1---------------1---------------1---|
G|--2---2-0h2---2---2---2-0h2---2---2---2-0h2---2---2---2-0h2---2-|
D|----------------------------------------------------------------|
A|0---0---0---0---------------------------------------------------|
D|----------------3---3---3---3---0---0---0---0---0---0---0---0---|



e|0-------0-------------------------------------------------------|
B|----------------1-------1-------3-------3-------3-------3-------|
G|--2---2---2---2---2---2---2---2---2---2---2---2---2---2---2---2-|
D|----------------------------------------------------------------|
A|0---0---0---0---------------------------------------------------|
D|----------------3---3---3---3---0---0---0---0---0---0---0---0---|

We travel fast, my voice and me/ one penny in the pocket, penny in the pocket


e|0-------0-------------------------------------------------------|
B|----------------1-------1-------3-------3-------3-------3-------|
G|--2---2---2---2---2---2---2---2---2---2---2---2---2---2---2---2-|
D|----------------------------------------------------------------|
A|0---0---0---0---------------------------------------------------|
D|----------------3---3---3---3---0---0---0---0---0---0---0---0---|

It's enough to build my town/ with guardian angels looking after you and me


Bridge


Chorus

e|----(0-----------------------------(0--------------(0-----------|
B|---(3--------------(5-------------(1--------------(3------------|
G|--(2--------------(4-------------(2--------------(0-------------|
D|-(0--------------(0-------------(2--------------(2--------------|
A|-------------------------------(0--------------(3---------------|
D|(3-------------(5-----------------------------------------------|

I see the waves and embrace the shore/ I've got my feet in the water, feet in the water



e|-----------------------------------(0---------------------------|
B|---(3--------------(5-------------(1---------------(3-----------|
G|--(0--------------(4-------------(2---------------(2------------|
D|-(0--------------(0-------------(2---------------(0-------------|
A|-------------------------------(0-------------------------------|
D|(3-------------(5-------------------------------(0--------------|

I'm speaking in a brand new tongue/ confidence flying high and free



e|0---------------0---------------0---------------0---------------|
B|------------1---------------1---------------1---------------1---|
G|--2---2-0h2---2---2---2-0h2---2---2---2-0h2---2---2---2-0h2---2-|
D|----------------------------------------------------------------|
A|0---0---0---0---------------------------------------------------|
D|----------------3---3---3---3---0---0---0---0---0---0---0---0---|

High and free ~


e|0-------0-------------------------------------------------------|
B|----------------1-------1-------3-------3-------3-------3-------|
G|--2---2---2---2---2---2---2---2---2---2---2---2---2---2---2---2-|
D|----------------------------------------------------------------|
A|0---0---0---0---------------------------------------------------|
D|----------------3---3---3---3---0---0---0---0---0---0---0---0---|

We got to drive away to explore/ world and its corners, sides and corners


e|0-------0-------------------------------------------------------|
B|----------------1-------1-------3-------3-------3-------3-------|
G|--2---2---2---2---2---2---2---2---2---2---2---2---2---2---2---2-|
D|----------------------------------------------------------------|
A|0---0---0---0---------------------------------------------------|
D|----------------3---3---3---3---0---0---0---0---0---0---0---0---| 

He felt safe with a loaded gun/ poor mans warranty, long-life warranty


Bridge


Chorus


Vocal solo - you can play around with the chords


Outro

e|0---------------0---------------0---------------0---------------|
B|------------1---------------1---------------1---------------1---|
G|--2---2-0h2---2---2---2-0h2---2---2---2-0h2---2---2---2-0h2---2-|
D|----------------------------------------------------------------|
A|0---0---0---0---------------------------------------------------|
D|----------------3---3---3---3---0---0---0---0---0---0---0---0---|


                                                                  let ring
e|0---------------0---------------0---------------0---------------0---|
B|------------1---------------1---------------1---------------1---1---|
G|--2---2-0h2---2---2---2-0h2---2---2---2-0h2---2---2---2-0h2---2-2---|
D|----------------------------------------------------------------2---|
A|0---0---0---0---------------------------------------------------0---|
D|----------------3---3---3---3---0---0---0---0---0---0---0---0-------| 

Still I sit here where you left me alone/ my feet in the water, feet in the water ~


************************************

| h   hammer-on
| (   play like a chord

************************************