Eva Cassidy - Somewhere Over The Rainbow Text Guitar Tab

Learn song with the online tabulature player
Capo 2nd fret

Intro
-----------------------------------------------------3--------3-----|
--0---3---0---3---0---3---0---0-----1---3---1---3---------5---------|
--2---0---2---0---2---0---2---3-----0---0---0---0-------5---5---5---|
----0---0---0---0---0---0---0---------2---2---2---0--0--------0-----|
------------------------------------0-----------------------------0-|
--3------------------------------0----------------------------------|

Chorus
----------3----------------0--------2-------2----------------3-----|
--0-----0----------------0-----0----------3-----3----------3-------|
------2-------2--------0----------------2----------------4-------4-|
----0-------0--------2-------2--------4-------4--------3-------3---|
---------------------------------0--2-------------0----------------|
--3-------------2--0---------------------------------3-------------|

----------0----------------3----------------3--------1---------------|
--------1-----1----------4----------0-----0------0-----------1---3---|
------0-----0----------3----------------2----------0-----0-----------|
----2-------2---0----5----------------0--------0-------0---0---0---0-|
--3----------------3-----------------------------------------0---2---|
------------------------------------3--------------0-3---------------|

--0-------0----------------3---------------------------------0-------|
--------1-----1----4-----4----4-----0-------------0--------0-----0---|
------0-------0----3---3--------3---0---0-------0--------0---------0-|
----2-------2--------5----------------0---0---0--------2-------2-----|
--3-------------0--3-------------------------------------------------|
------------------------------------3-------2--------0---------------|

--3-------0---2-3--3------------------------3-------------------------|
--------1-1---1----1---1---------1--------0-----0-----1-------3-------|
------0-----0--------2---2-----2--------2---------2-0-----0-------2---|
----2--------------0---------0--------0-------0---------2---2---0---0-|
--0---------------------------------------------------0---------------|
---------------------------2--------3-------------------------2-------|

Verse
---------------------------------------------------------------------|
--0---3---0---3----0---3---0---3----1---3---3---3-----1---3---1---3--|
--2---0---2---0----2---0---2---0----0---0---0---0-----2---2---2---2--|
----0---0---0---0----0---0---0--------2---2---2---0-----0---0---0----|
------------------------------------0-----------------2--------------|
--3-------------------------------0----------------------------------|

--2-------2----------------0--------3---0---3---4/5---6/7-------------|
--------0------p---------0----------------1-----------------7---------|
------2-------2-0------0-------0--------------0-----0-----7---7-------|
----0-------0--------2-------2---0----2-----------------0---------0---|
------------------------------------0-------------------------------3-|
--3----------------0--------------------------------------------2-----|

--------------------------------------------2-----------------2-------|
--0---3---0---0----0---3---0---3----------2-----2-----------2-------2-|
--2---0---2---3----2---0---2---0--------3---------3-------3-------3---|
----0---0---0---0----0---0---0--------2-------4---------2-------2-----|
----------------------------------------------------------------------|
--3-------------------------------0-2-----------------2---------------|

----------2---------------------------------0-----------------0------|
--------3-----3----------3--------3-------1---1-------------1--------|
------4---------4------4--------4-------0-------0---------2----------|
----4-------4--------4--------4-------2-----------2-----0------------|
--2----------------1--------1-------0--------------------------------|
------------------------------------------------------2--------------|

Instrumental Break
--7-----7--5-------3-------3-5--3---2-----2---------------5---3--------|
--8-----8--7-------5-----5--------0-3---3---------------3---------6----|
-----7--0-----0--------4--------------2------2-2------4----------------|
------------------------------------------------------------3---3------|
------------------------------------------2--------------------------0-|
-----------------------------------------------2--0---3----------------|

--0-------2---3----3---5------3-5---5/7--7---7--7\--------3---1---3---|
------0------------4---------------------8---8-----0--0-----0-------0-|
----0---0---0---0----3-----3---------------7-------0------------------|
-------------------------5------------------------------0-------0-----|
--3----------------3--------------------------------------------------|
------------------------------------------------------3-------3-------|

--0-------2---3----3---5------3-------------0---2-----3---2---0---2/3-|
------0------------4----------------0---3---------3-----0---3---------|
----0---0---0---0----3-----3----3---------0---0-----------------------|
-------------------------5------------0-------------------------------|
--3----------------3--------------------------------------------------|
------------------------------------3-------2---------0---------------|

--3-------0---2/3--3-------5/7------3-------3--------------------------|
------1----------------1---5/7----------3-------3-----1--------3---2---|
----0---0---0--------2---2------------0---0---0---0-------0------0---0-|
-------------------0------------------------------------2---2----------|
--0---------------------------------------------------0----------------|
------------------------------------3-------3------------------2-------|

Outro:
---------------------------------------------------------------------|
--0---3---0---3----0---3---0---3----1---3---3---3-----1---3---1---3--|
--2---0---2---0----2---0---2---0----0---0---0---0-----2---2---2---2--|
----0---0---0---0----0---0---0--------2---2---2---0-----0---0---0----|
------------------------------------0--------------------------------|
--3-------------------------------0-------------------2--------------|