Evan Taubenfeld - Its Like That Text Guitar Tab

Learn the song with the online tablature player
EVAN TAUBENFELD
IT'S LIKE THAT
WELCOME TO THE BLACK LIST CLUB
2010

Main riff : Bm ; F#m - G#m ; F#m - Em ; F#m - Bm

Okay so INTRO is MAIN RIFF.
First Verse is MAIN RIFF too

Pre chorus : G#m ; Em ; Bm ; F#m

Chorus is the MAIN RIFF.
Intro
2nd Verse ( I'm not sure about this)  : Bm ; G#m ; Em ; Bm      x2
Pre chorus
Chorus
The thing after Chorus - Everything i say is true....  Em and F#m
I don't know about the solo, but you can play just the Main Riff.
This part : All the cash in the world... Bm ; G#m ; Em ; F#m

and then CHORUS
and the main riff.

listen to the song carefully and you'll get the strumming .

P.S. I don't know if this is right, coz I suck at making tabs, but anyways, here's the INTRO

e|---------------------------|
B|-----------------------4---|
G|---4--4-4-4--4-4-4--6------|
D|---------------------------|
A|---------------------------|
E|---------------------------|

e|---------------------------|
B|----------------------4----|
G|-----4-4-4--4-4-4--6-------|
D|---------------------------|
A|---------------------------|
E|---------------------------|

e|--------------------------------------|
B|--------------------------4-----------|
G|------4-4-4--4-4-4----4-6---6--4-6-4-6|
D|--------------------6-----------------|
A|--------------------------------------|
E|--------------------------------------|