Ever Stays Red - Glorious Text Guitar Tab

Learn song with the online tabulature player
Tuning: Drop D

Intro
--------------------------------------------------------------------|
--------------------------------------------------------------------|
-------11-------11------11---------------11-------11------11--------|
---9--------9--------9-------9-------9--------9--------9-------9----|
-7---7----7---7----7---7---7---7------------------------------------|
-----------------------------------6---6----6---6----6---6---6---6--|

Verse
 E     B     A
---   ---   ---|
---   ---   ---|
-9-   ---   ---|
-9-   -9-   -7-|
-7-   -9-   -7-|
---   -9-   -7-|
(All palm muted)

Chorus
 E     B     A
---   ---   ---|
---   ---   ---|
-9-   ---   ---|
-9-   -9-   -7-|
-7-   -9-   -7-|
---   -9-   -7-|