Everclear - Electra Made Me Blind Chords

Main Riff
Main Riff
 
No chord
    
Standard guitar tuning:
E
A
D
G
B
E
No capo

Verse1

e|-------8-8-5-5------|
B|-5-8-5-5-5-5-5-8-5--|
G|-6-6-6-6-6-6-6-6-6--|
D|-7-7-7---------7-7--|
A|-0-0-0---------0-0--|
E|--------------------|

Verse2

e|---5------8------|
B|-4-4-4--7-7-7-7--|
G|-4-4-4--7-7-7-7--|
D|-4-4-4--7-7-7-7--|
A|-2-2-2--5-5-5-5--|
E|-----------------|

Chorus

e|------------------|
B|------------------|
G|------------------|
D|-7-7-x-x-3-x-2-6--|
A|-7-7-x-x-3-x-2-6--|
E|-5-5-x-x-1-x-0-4--|

All Content on this page is the property of the copyright owner of the original composition.