Everclear - Sunflowers Text Guitar Tab

Learn song with the online tabulature player
Sunflowers
So Much For The Afterglow
Words By Art Alexakis
Music By Everclear    

(Here are all the Riffs and Fills you should need.  You can put it all together 
yourself.  Sorry no Lead Guitar stuff for the other middle part of the song, no real 
pattern to it)

-INTRO-(guitar distorded)

e|--------------------|
B|--------------------|
G|----------5-5-5-----|
D|----------5-7-5---5-|
A|--3-3-3/7-------7-5-|
E|--------------------|

-MAIN RIFF-(guitars distorted)
(G1) G              C9
e|---3-3------------------|
B|---3-3------------3---3-|
G|---0-0--0-2-4p2p0-0-0-0-|
D|---0-0------------x-2-0-|
A|---2-2------------3-3---|
E|---3-3------------------|
(G2)                      |
e|--------3-5-7p5p3-------|
B|--------3-3-3-3-3-------|
G|------------------------|
D|------------------------|
A|------------------------|
E|------------------------|
(Bass)                    |
G|------------------------|
D|------------------------|
A|------------------3-3-5-|
E|---3-3------------------|

-VERSE RIFF- (guitar 1 clean)
    G               C9
e|-----------------------|
B|-----------------------|
G|------0-2-4p2p0-----0--|
D|--0-0-----------0-0-0--|
A|--2-2-----------0-3----|
E|--3-3------------------|
 |                       |
e|------3-5-7p5p3--------|
B|------3-3-3-3-3--------|
G|-----------------------|
D|-----------------------|
A|-----------------------|
E|-----------------------|
 |                       |
G|-----------------------|
D|--------------------0--|
A|----------------0-3----|
E|--3-3------------------|

-Fill 1- "Yes I know what you do..." (guitars distorded)
    Am      CM
e|--0-------0----|Into Main Riff
B|--1-------1----|
G|--2-------0----|
D|--2-------2----|
A|--0-------3----|
E|---------------|
 |               |
G|---------------|
D|---------------|
A|--0-------3----|
E|---------------|

-Fill 2- "I see you run around in circles..."(Bass playes root notes for the 
most part of the rest of the song)
   G5'' A5    A5''B5     Main Riff(x2)

-RIFF 3- "When you were a child..." (guitars distorted)
   G5   B5    C5   G5  B5   C5   D5\

-Riff 4- 
  Same as Riff 3 with out D5 slide, plus-> G5  G5  B5  C5 D5\

-RIFF 5-
   G5   B5    C5   D5   E5   C5   C9    D5\
 
-Ending is same as Main Riff, ends on the Tonic-