Everclear - You Make Me Feel Like A Whore Text Guitar Tab

Learn the song with the online tablature player
Intro
x4):
e|--------------------------|
B|-7-7-7---7-7---5-5---7-7--|
G|-7-7-7---7-7---5-5---7-7--|
D|-7-7-7---7-7---5-5---7-7--|
A|-5-5-5---5-5---3-3---5-5--|
E|--------------------------|

Intro/Post Chorus:
e|----------------------------------------------|
B|-7-7-x-x-x-x-7-7--5-5--4-4-x-x-x-x-4-4--------|
G|-7-7-x-x-x-x-7-7--5-5--4-4-x-x-x-x-4-4--------|
D|-7-7-x-x-x-x-7-7--5-5--4-4-x-x-x-x-4-4--7-7---|
A|-5-5-x-x-x-x-5-5--3-3--2-2-x-x-x-x-2-2--7-7---|
E|----------------------------------------5-5---|

End Intro:
e|-3-3-3-3--5-5-5-5--|
B|-3-3-3-3--5-5-5-5--|
G|-4-4-4-4--6-6-6-6--|
D|-5-5-5-5--7-7-7-7--|
A|-5-5-5-5--7-7-7-7--|
E|-3-3-3-3--5-5-5-5--|

Verse
e|---------------------------------|
B|-----7---------------4-----------|
G|---7---------------4-------------|
D|-7-----7-7--5-5--4-----4-4-------|
A|-5-----5-5--3-3--2-----2-2--3-3--|
E|----------------------------5-5--|

Chorus 1
      G        A        F#       B        G        A
e|-3-3-3-3--5-5-5-5--2-2-2-2--7-7-7-7--3-3-3-3--5-5-5-5--|
B|-3-3-3-3--5-5-5-5--2-2-2-2--7-7-7-7--3-3-3-3--5-5-5-5--|
G|-4-4-4-4--6-6-6-6--3-3-3-3--8-8-8-8--4-4-4-4--6-6-6-6--|
D|-5-5-5-5--7-7-7-7--4-4-4-4--9-9-9-9--5-5-5-5--7-7-7-7--|
A|-5-5-5-5--7-7-7-7--4-4-4-4--9-9-9-9--5-5-5-5--7-7-7-7--|
E|-3-3-3-3--5-5-5-5--2-2-2-2--7-7-7-7--3-3-3-3--5-5-5-5--|

Chorus 2 & 3:

      G        A        F#       B        G        A
e|-3-3-3-3--5-5-5-5--2-2-2-2--7-7-7-7--3-3-3-3--5-5-5-5--
B|-3-3-3-3--5-5-5-5--2-2-2-2--7-7-7-7--3-3-3-3--5-5-5-5--
G|-4-4-4-4--6-6-6-6--3-3-3-3--8-8-8-8--4-4-4-4--6-6-6-6--
D|-5-5-5-5--7-7-7-7--4-4-4-4--9-9-9-9--5-5-5-5--7-7-7-7--
A|-5-5-5-5--7-7-7-7--4-4-4-4--9-9-9-9--5-5-5-5--7-7-7-7--
E|-3-3-3-3--5-5-5-5--2-2-2-2--7-7-7-7--3-3-3-3--5-5-5-5--

    B          C          G        A        F#       B
-7-7-7-7--8--8--8--8---3-3-3-3--5-5-5-5--2-2-2-2--7-7-7-7--
-7-7-7-7--8--8--8--8---3-3-3-3--5-5-5-5--2-2-2-2--7-7-7-7--
-8-8-8-8--9--9--9--9---4-4-4-4--6-6-6-6--3-3-3-3--8-8-8-8--
-9-9-9-9--10 10-10-10--5-5-5-5--7-7-7-7--4-4-4-4--9-9-9-9--
-9-9-9-9--10-10-10-10--5-5-5-5--7-7-7-7--4-4-4-4--9-9-9-9--
-7-7-7-7--8--8--8--8---3-3-3-3--5-5-5-5--2-2-2-2--7-7-7-7--

    G        A
-3-3-3-3--5-5-5-5--|
-3-3-3-3--5-5-5-5--|
-4-4-4-4--6-6-6-6--|
-5-5-5-5--7-7-7-7--|
-5-5-5-5--7-7-7-7--|
-3-3-3-3--5-5-5-5--|