Everlife - I Could Get Used To This Text Guitar Tab

Learn song with the online tabulature player
I COULD GET USED TO THIS- EVERLIFE
TABBED BY: 06gtrplay92
TUNING: Standard

INTRO (CLEAN)

e|------------------------------------------------------------------|
B|------------------------------------------------------------------|
G|--16--------16-------------16~--16-------16------16-14-13-11-9----|
D|-----14-14------14-14---14---------14-14---14-14------------------|
A|------------------------------------------------------------------|
E|------------------------------------------------------------------|

VERSE 1 (CLEAN)

e|-------------------------------------|
B|-------------------------------------|
G|--16--------16------------16~--------|
D|-----14-14-----14-14---14------------|  x8
A|-------------------------------------|
E|-------------------------------------|

PRE-CHORUS 1 (CLEAN)

e|-----------------------------------------|
B|-----------------------------------------|
G|-2~--------------------------9~----------|
D|-2~------------6~------------9~----------| x2
A|-0~------------6~------------7~----------|
E|---------------4~------------------------|

CHORUS 1 (DISTORTED)
e|----------------------------------------------------------------|
B|----------------------------------------------------------------|
G|-6-6-6-6-6-----------4-4-4-4-4------------6-6-6-6-6-------------|
D|-6-6-6-6-6-6-6-6-6-6-4-4-4-4-4-4-4-2-2-2--6-6-6-6-6-6-6-6-6-6---|
A|-4-4-4-4-4-6-6-6-6-6-2-2-2-2-2-4-4-2-2-2--4-4-4-4-4-6-6-6-6-6---|
E|-----------4-4-4-4-4-----------2-2-0-0-0------------4-4-4-4-4---|
                                                                       
e|--------------------|
B|--------------------|
G|-------4------------|
D|-4-4-4-4-2-2-2-2-2--|   x2
A|-4-4-4-2-2-2-2-2-2--| 
E|-2-2-2---0-0-0-0-0--|
PRE-VERSE 1 (this part is hardly heard and it goes by pretty fast)

e|----------|
B|----------|
G|----------|
D|-4----2---|  
A|-4----2---|
E|-2----0---|

VERSE 2 (CLEAN)

e|-------------------------------------|
B|-------------------------------------|
G|--16--------16------------16~--------|
D|-----14-14-----14-14---14------------|  x4
A|-------------------------------------|
E|-------------------------------------|

PRE-CHORUS 2 (CLEAN)

e|-----------------------------------------|
B|-----------------------------------------|
G|-2~--------------------------9~----------|
D|-2~------------6~------------9~----------| x2
A|-0~------------6~------------7~----------|
E|---------------4~------------------------|


CHORUS 2 (DISTORTED)

e|----------------------------------------------------------------|
B|----------------------------------------------------------------|
G|-6-6-6-6-6-----------4-4-4-4-4------------6-6-6-6-6-------------|
D|-6-6-6-6-6-6-6-6-6-6-4-4-4-4-4-4-4-2-2-2--6-6-6-6-6-6-6-6-6-6---|
A|-4-4-4-4-4-6-6-6-6-6-2-2-2-2-2-4-4-2-2-2--4-4-4-4-4-6-6-6-6-6---|
E|-----------4-4-4-4-4-----------2-2-0-0-0------------4-4-4-4-4---|
                                                                       
e|--------------------|
B|--------------------|
G|-------4------------|
D|-4-4-4-4-2-2-2-2-2--|   x2
A|-4-4-4-2-2-2-2-2-2--| 
E|-2-2-2---0-0-0-0-0--|

BRIDGE (Distorted)

e|---------------------------------------------------------------------------|
B|---------------------------------------------------------------------------|
G|---------------------------------------------------------------------------|
D|-2-2-2-2-2/5-5-5-5-5-4-4-4-4-4--2-2-2-2-2-2-2-2-2-2/-5-5-5-5-5-4-4-4-4-4---|
A|-2-2-2-2-2/5-5-5-5-5-4-4-4-4-4--2-2-2-2-2-2-2-2-2-2/-5-5-5-5-5-4-4-4-4-4---|
E|-0-0-0-0-0/3-3-3-3-3-2-2-2-2-2--0-0-0-0-0-0-0-0-0-0/-3-3-3-3-3-2-2-2-2-2---|

e|-----------------------|
B|-----------------------|
G|-2-2-2-2-2-4-4-4-4-4---|
D|-2-2-2-2-2-4-4-4-4-4---|
A|-0-0-0-0-0-2-2-2-2-2---|
E|-----------------------|

ACOUSTIC
e|-4-4-4-4-4-4-4-4-4-4-2-2-2-2-2-2-2-0-0-0-4-4-4-4-4-4-4-4-4-4-2-2-2-2-0-0-0-0-0--|
B|-4-4-4-4-4-4-4-4-4-4-2-2-2-2-2-2-2-0-0-0-4-4-4-4-4-4-4-4-4-4-2-2-2-2-0-0-0-0-0--|
G|-6-6-6-6-6-4-4-4-4-4-4-4-4-4-4-2-2-0-0-0-6-6-6-6-6-4-4-4-4-4-2-2-2-4-0-0-0-0-0--|
D|-6-6-6-6-6-6-6-6-6-6-4-4-4-4-4-4-4-2-2-2-6-6-6-6-6-6-6-6-6-6-4-4-4-4-2-2-2-2-2--|
A|-4-4-4-4-4-6-6-6-6-6-2-2-2-2-2-4-4-2-2-2-4-4-4-4-4-6-6-6-6-6-4-4-4-2-2-2-2-2-2--|
E|-4-4-4-4-4-4-4-4-4-4-2-2-2-2-2-2-2-0-0-0-4-4-4-4-4-4-4-4-4-4-2-2-2-2-0-0-0-0-0--|

NO MUSIC, JUST SINGING

THEN,
e|-------------------------------------------------------------|
B|-------------------------------------------------------------|
G|-4-4-4-4-4------------6-6-6-6-6-----------------4------------|
D|-4-4-4-4-4-4-4-2-2-2--6-6-6-6-6-6-6-6-6-6-4-4-4-4-2-2-2-2-2--| 
A|-2-2-2-2-2-4-4-2-2-2--4-4-4-4-4-6-6-6-6-6-4-4-4-2-2-2-2-2-2--|
E|-----------2-2-0-0-0------------4-4-4-4-4-2-2-2---0-0-0-0-0--|

CHORUS 3/OUTRO

Guitar 1
e|----------------------------------------------------------------|
B|----------------------------------------------------------------|
G|-6-6-6-6-6-----------4-4-4-4-4------------6-6-6-6-6-------------|
D|-6-6-6-6-6-6-6-6-6-6-4-4-4-4-4-4-4-2-2-2--6-6-6-6-6-6-6-6-6-6---|
A|-4-4-4-4-4-6-6-6-6-6-2-2-2-2-2-4-4-2-2-2--4-4-4-4-4-6-6-6-6-6---|
E|-----------4-4-4-4-4-----------2-2-0-0-0------------4-4-4-4-4---|
                                                                       
e|--------------------|
B|--------------------|
G|-------4------------|
D|-4-4-4-4-2-2-2-2-2--|   x2
A|-4-4-4-2-2-2-2-2-2--| 
E|-2-2-2---0-0-0-0-0--|

Guitar 2
e|--/12-12-12----11h12------|  |--12------|
B|------------12------------|  |-----12---| 
G|--------------------------|  |----------|
D|--------------------------|  |----------|
A|--------------------------|  |----------|
E|--------------------------|  |----------|
                                     ^
                                     ^^ 
                                      ^ Repeat this until the song fades out.
                         The guitar plays more stuff but I can’t make it out.
                                     
                                   
Now, I know this probably isn't perfect, but hey cut me some slack. At least I tried. PLEASE RATE!