Everyday Sunday - Best Night Of Our Lives Text Guitar Tab

Learn song with the online tabulature player
-------------------------------------------------------------------------------
                            Best Night Of Our Lives - Everyday Sunday
-------------------------------------------------------------------------------
Tabbed by: Izzy
Email: theflippedmusician@gmx.com

Tuning: Standard


Intro:
e|----------------------------------|
B|----------------------------------|
G|------------------6-6-6-6-6-3-3-3-|
D|--4-4-4-4-4-6-6-6-6-6-6-6-6-3-3-3-|
A|--4-4-4-4-4-6-6-6-4-4-4-4-4-1-1-1-|
E|--2-2-2-2-2-4-4-4-----------------|
(played 4x total for guitar 1)

e|------------------------------------------------------------|
B|------------------------------------------------------------|
G|------------1-1-1-3-3-3-3---------------1-1-1-3-3-3-3-------|
D|----4-4-4-4---------------4-4-4---4-4-4---------------4-4-4-|
A|--1-----------------------------1---------------------------|
E|------------------------------------------------------------|
(played 2x over last 2x of intro chords for guitar 2)


Verse 1:
e|-----------------------------------------------------------------|
B|-----------------------------------------------------------------|
G|-----------------------------------------------------------------|
D|--4-4-4-4-4-3-----6-6-6-6-6-3-----4-4-4-4-4-3-----6-6-6-6-6------|
A|--4-4-4-4-4---4---6-6-6-6-6---4---4-4-4-4-4---4---6-6-6-6-6-3-h4-|
E|--2-2-2-2-2-------4-4-4-4-4-------2-2-2-2-2-------4-4-4-4-4------|
(x2)

e|--------------------------------------------------------|
B|--------------------------------------------------------|
G|--------------------------3-3-3---3-3-3---3-3-3---3-3-3-|
D|--4-4-4---4-4-4---6-6-6---3-3-3---3-3-3---3-3-3---3-3-3-|
A|--4-4-4---4-4-4---6-6-6---1-1-1---1-1-1---1-1-1---1-1-1-|
E|--2-2-2---2-2-2---4-4-4---------------------------------|
(x2)


Chorus:
e|------------------------------------------------------------------------------|
B|------------------------------------------------------------------------------|
G|--6---6-6---------------------------------------------------------------------|
D|--6---6-6-----------------------------9\--4---4-4-----------------------------|
A|--4---4-4---------------------------------4---4-4-----------------------------|
E|------------------------------------------2---2-2-----------------------------|

e|------------------------------------------------------------------|
B|------------------------------------------------------------------|
G|--3---3-3---3-3-3-------------------------------------------------|
D|--3---3-3---3-3-3-6---6-6---6-6-6-4---4-4---4-4-4-4---4-4---4-4-4-|
A|--1---1-1---1-1-1-6---6-6---6-6-6-4---4-4---4-4-4-4---4-4---4-4-4-|
E|------------------4---4-4---4-4-4-2---2-2---2-2-2-2---2-2---2-2-2-|

e|------------------------------------------------------------------------------|
B|------------------------------------------------------------------------------|
G|--6---6-6---------------------------------------------------------------------|
D|--6---6-6-----------------------------9\--4---4-4-----------------------------|
A|--4---4-4---------------------------------4---4-4-----------------------------|
E|------------------------------------------2---2-2-----------------------------|

e|----------------------------------------------------------|
B|----------------------------------------------------------|
G|--3---3---3-3-3-------------------------------------------|
D|--3---3---3-3-3-3---3---3-3-3-4---4---4-4-4-6---6---6-6-6-|
A|--1---1---1-1-1-3---3---3-3-3-4---4---4-4-4-6---6---6-6-6-|
E|----------------1---1---1-1-1-2---2---2-2-2-4---4---4-4-4-|


Interlude:
e|----------------------------------|
B|----------------------------------|
G|------------------6-6-6-6-6-3-3-3-|
D|--4-4-4-4-4-6-6-6-6-6-6-6-6-3-3-3-|
A|--4-4-4-4-4-6-6-6-4-4-4-4-4-1-1-1-|
E|--2-2-2-2-2-4-4-4-----------------|


Verse 2:
e|----------------------------------------------------------------|
B|----------------------------------------------------------------|
G|----------------------------------------------------------------|
D|--4-4-4-4-4-4-4---6-6-6-6-6-6-6---4-4-4-4-4-4-4---6-6-6-6-6-6-6-|
A|--4-4-4-4-4-4-4---6-6-6-6-6-6-6---4-4-4-4-4-4-4---6-6-6-6-6-6-6-|
E|--2-2-2-2-2-2-2---4-4-4-4-4-4-4---2-2-2-2-2-2-2---4-4-4-4-4-4-4-|
(x2)

e|--------------------------------------------------------|
B|--------------------------------------------------------|
G|--------------------------3-3-3---3-3-3---3-3-3---3-3-3-|
D|--4-4-4---4-4-4---6-6-6---3-3-3---3-3-3---3-3-3---3-3-3-|
A|--4-4-4---4-4-4---6-6-6---1-1-1---1-1-1---1-1-1---1-1-1-|
E|--2-2-2---2-2-2---4-4-4---------------------------------|
(x2)


Chorus


Interlude
e|-------------------------------------------|
B|-------------------------------------------|
G|--6-----5----------------6-----5---------6-|
D|--6-----5-----4---6------6-----5-----6---6-|
A|--4-----3-----4---6------4-----3-----6---4-|
E|--------------2---4------------------4-----|


Bridge:
e|------------------------------------------------------------------|
B|--6-6-6-6-6-6-6-6-6-6-6-6-4-4-4-4-6-6-6-6-6-6-6-6-6-6-6-6-4-4-4-4-|
G|------------------------------------------------------------------|
D|------------------------------------------------------------------|
A|------------------------------------------------------------------|
E|------------------------------------------------------------------|

e|------------------------------------------------------------------|
B|--6-6-6-6-6-6-6-6-6-6-6-6-4-4-4-4---------------------------------|
G|----------------------------------6-6-6-6-6-6-6-6-5-5-5-5-5-5-5-5-|
D|------------------------------------------------------------------|
A|------------------------------------------------------------------|
E|------------------------------------------------------------------|

e|------------------------------------------------------------------|
B|------------------------------------------------------------------|
G|------------------------------------------------------------------|
D|--4-4-4-4-4-4-4-4-4-4-4-4-4-4-4-4-4-4-4-4-4-4-4-4-4-4-4-4-4-4-4-4-|
A|--4-4-4-4-4-4-4-4-4-4-4-4-4-4-4-4-4-4-4-4-4-4-4-4-4-4-4-4-4-4-4-4-|
E|--2-2-2-2-2-2-2-2-2-2-2-2-2-2-2-2-2-2-2-2-2-2-2-2-2-2-2-2-2-2-2-2-|

e|--------------------------------------4---4-|
B|--------------4---4-------6-4-----4-6-6---6-|
G|--6-5-----5-6-------------6-5-----5-6-------|
D|--------------------------------------------|
A|--------------------------------------------|
E|--------------------------------------------|

e|------------------------------------------------------------------|
B|------------------------------------------------------------------|
G|------------------------------------------------------------------|
D|--4-4-4-4-4-4-4-4-4-4-4-4-4-4-4-4-4-4-4-4-4-4-4-4-4-4-4-4-4-4-4-4-|
A|--4-4-4-4-4-4-4-4-4-4-4-4-4-4-4-4-4-4-4-4-4-4-4-4-4-4-4-4-4-4-4-4-|
E|--2-2-2-2-2-2-2-2-2-2-2-2-2-2-2-2-2-2-2-2-2-2-2-2-2-2-2-2-2-2-2-2-|


Chorus 2:

e|----------------------------------------------------------------------|
B|----------------------------------------------------------------------|
G|--6-6-6-6-6-6-6-6-6-6-6-6-6-6-----------------------------------------|
D|--6-6-6-6-6-6-6-6-6-6-6-6-6-6---------4-4-4-4-4-4-4-4-4-4-4-4-4-4-4-4-|
A|--4-4-4-4-4-4-4-4-4-4-4-4-4-4---------4-4-4-4-4-4-4-4-4-4-4-4-4-4-4-4-|
E|--------------------------------------2-2-2-2-2-2-2-2-2-2-2-2-2-2-2-2-|

e|------------------------------------------------------------------|
B|------------------------------------------------------------------|
G|--3---3-3---3-3-3-------------------------------------------------|
D|--3---3-3---3-3-3-6---6-6---6-6-6-4---4-4---4-4-4-4---4-4---4-4-4-|
A|--1---1-1---1-1-1-6---6-6---6-6-6-4---4-4---4-4-4-4---4-4---4-4-4-|
E|------------------4---4-4---4-4-4-2---2-2---2-2-2-2---2-2---2-2-2-|

e|------------------------------------------------------------------|
B|------------------------------------------------------------------|
G|--6---6-6---6-6-6---6-6-6---6-6-6---------------------------------|
D|--6---6-6---6-6-6---6-6-6---6-6-6-4---4-4---4-4-4---4-4-4---4-4-4-|
A|--4---4-4---4-4-4---4-4-4---4-4-4-4---4-4---4-4-4---4-4-4---4-4-4-|
E|----------------------------------2---2-2---2-2-2---2-2-2---2-2-2-|

e|------------------------------------------------------------------|
B|------------------------------------------------------------------|
G|--3---3-3---3-3-3-------------------------------------------------|
D|--3---3-3---3-3-3-3---3-3---3-3-3-4---4-4---4-4-4-6---6-6---6-6-6-|
A|--1---1-1---1-1-1-3---3-3---3-3-3-4---4-4---4-4-4-6---6-6---6-6-6-|
E|------------------1---1-1---1-1-1-2---2-2---2-2-2-4---4-4---4-4-4-|

e|------------------------------------------------------------------|
B|------------------------------------------------------------------|
G|--6---6-6---6-6-6---6-6-6---6-6-6---------------------------------|
D|--6---6-6---6-6-6---6-6-6---6-6-6-4---4-4---4-4-4---4-4-4---4-4-4-|
A|--4---4-4---4-4-4---4-4-4---4-4-4-4---4-4---4-4-4---4-4-4---4-4-4-|
E|----------------------------------2---2-2---2-2-2---2-2-2---2-2-2-|

e|------------------------------------------------------------------|
B|------------------------------------------------------------------|
G|--3---3-3---3-3-3-------------------------------------------------|
D|--3---3-3---3-3-3-6---6-6---6-6-6-4---4-4---4-4-4-4---4-4---4-4-4-|
A|--1---1-1---1-1-1-6---6-6---6-6-6-4---4-4---4-4-4-4---4-4---4-4-4-|
E|------------------4---4-4---4-4-4-2---2-2---2-2-2-2---2-2---2-2-2-|


Outro:
e|----------------------------------|
B|----------------------------------|
G|------------------6-6-6-6-6-3-3-3-|
D|--4-4-4-4-4-6-6-6-6-6-6-6-6-3-3-3-|
A|--4-4-4-4-4-6-6-6-4-4-4-4-4-1-1-1-|
E|--2-2-2-2-2-4-4-4-----------------|
(played 4x total for guitar 1)

e|------------------------------------------------------------|
B|------------------------------------------------------------|
G|------------1-1-1-3-3-3-3---------------1-1-1-3-3-3-3-------|
D|----4-4-4-4---------------4-4-4---4-4-4---------------4-4-4-|
A|--1-----------------------------1---------------------------|
E|------------------------------------------------------------|

e|----------------------------------------------------------|
B|----------------------------------------------------------|
G|------------1-1-1-3-3-3-3---------------1-1-1-3-3-3-3-----|
D|----4-4-4-4---------------4-4-4---4-4-4---------------4-4-|
A|--1-----------------------------1-------------------------|
E|----------------------------------------------------------|
(played over last 2x of outro chords for guitar 2)

I had a bit of trouble hearing the strumming patterns and one or two chords, so if I 
something up, please let me know! =]

| \  slide down
| h  hammer-on
===============================================================================